ISO-10303-21;
HEADER;
FILE_DESCRIPTION (( 'STEP AP203' ),
    '1' );
FILE_NAME ('47857.step',
    '2021-10-07T13:48:17',
    ( '' ),
    ( '' ),
    'SwSTEP 2.0',
    'SolidWorks 2019',
    '' );
FILE_SCHEMA (( 'CONFIG_CONTROL_DESIGN' ));
ENDSEC;

DATA;
#1 = EDGE_LOOP ( 'NONE', ( #184 ) ) ;
#2 = EDGE_LOOP ( 'NONE', ( #121 ) ) ;
#3 = AXIS2_PLACEMENT_3D ( 'NONE', #212, #208, #23 ) ;
#4 = CC_DESIGN_APPROVAL ( #170, ( #167 ) ) ;
#5 = EDGE_LOOP ( 'NONE', ( #138 ) ) ;
#6 = ADVANCED_FACE ( 'NONE', ( #187 ), #36, .F. ) ;
#7 = PRODUCT_RELATED_PRODUCT_CATEGORY ( 'detail', '', ( #175 ) ) ;
#8 = CIRCLE ( 'NONE', #132, 1.009999999999995124 ) ;
#9 = VERTEX_POINT ( 'NONE', #57 ) ;
#10 = CC_DESIGN_SECURITY_CLASSIFICATION ( #73, ( #167 ) ) ;
#11 = DIRECTION ( 'NONE',  ( 3.491481338843133355E-15, -1.224646799147353207E-16, 1.000000000000000000 ) ) ;
#12 = DIRECTION ( 'NONE',  ( 4.275831445896958607E-31, 1.000000000000000000, 1.224646799147353207E-16 ) ) ;
#13 = EDGE_CURVE ( 'NONE', #109, #109, #8, .T. ) ;
#14 = CC_DESIGN_PERSON_AND_ORGANIZATION_ASSIGNMENT ( #217, #49, ( #175 ) ) ;
#15 = CIRCLE ( 'NONE', #95, 1.250000000000000666 ) ;
#16 = PERSON_AND_ORGANIZATION ( #203, #222 ) ;
#17 =( NAMED_UNIT ( * ) PLANE_ANGLE_UNIT ( ) SI_UNIT ( $, .RADIAN. ) );
#18 = ADVANCED_FACE ( 'NONE', ( #56, #93 ), #118, .T. ) ;
#19 = SECURITY_CLASSIFICATION_LEVEL ( 'unclassified' ) ;
#20 = AXIS2_PLACEMENT_3D ( 'NONE', #207, #76, #189 ) ;
#21 = EDGE_LOOP ( 'NONE', ( #186 ) ) ;
#22 = CARTESIAN_POINT ( 'NONE',  ( 4.189777606611760026E-14, 7.573786902442321255E-33, 12.00000000000000000 ) ) ;
#23 = DIRECTION ( 'NONE',  ( 3.813722662152967456E-31, 1.000000000000000000, 1.073467497510407515E-16 ) ) ;
#24 = EDGE_CURVE ( 'NONE', #162, #162, #70, .T. ) ;
#25 = AXIS2_PLACEMENT_3D ( 'NONE', #148, #63, #69 ) ;
#26 = VERTEX_POINT ( 'NONE', #142 ) ;
#27 = FACE_OUTER_BOUND ( 'NONE', #119, .T. ) ;
#28 = DIRECTION ( 'NONE',  ( 0.0000000000000000000, -1.000000000000000000, 0.0000000000000000000 ) ) ;
#29 = DIRECTION ( 'NONE',  ( 3.491481338843133355E-15, -1.224646799147353207E-16, 1.000000000000000000 ) ) ;
#30 = CIRCLE ( 'NONE', #3, 1.009999999999993348 ) ;
#31 = MECHANICAL_CONTEXT ( 'NONE', #219, 'mechanical' ) ;
#32 = DATE_TIME_ROLE ( 'creation_date' ) ;
#33 = AXIS2_PLACEMENT_3D ( 'NONE', #97, #11, #124 ) ;
#34 = DATE_TIME_ROLE ( 'classification_date' ) ;
#35 = VERTEX_POINT ( 'NONE', #164 ) ;
#36 = PLANE ( 'NONE',  #205 ) ;
#37 = CALENDAR_DATE ( 2021, 7, 10 ) ;
#38 = CARTESIAN_POINT ( 'NONE',  ( 1.501336975702547217E-13, -5.265981236333618470E-15, 43.00000000000000000 ) ) ;
#39 = CARTESIAN_POINT ( 'NONE',  ( 4.189777606611760026E-14, 1.009999999999993570, 12.00000000000000000 ) ) ;
#40 = CONICAL_SURFACE ( 'NONE', #99, 1.249999999999996447, 0.5235987755982915992 ) ;
#41 = DIRECTION ( 'NONE',  ( -3.491481338843133355E-15, 1.224646799147353207E-16, -1.000000000000000000 ) ) ;
#42 = DIRECTION ( 'NONE',  ( 4.275831445896959482E-31, 1.000000000000000000, 1.224646799147353207E-16 ) ) ;
#43 = FACE_OUTER_BOUND ( 'NONE', #154, .T. ) ;
#44 = ADVANCED_FACE ( 'NONE', ( #27 ), #157, .F. ) ;
#45 = CALENDAR_DATE ( 2021, 7, 10 ) ;
#46 = LOCAL_TIME ( 15, 48, 17.00000000000000000, #220 ) ;
#47 = DATE_AND_TIME ( #179, #123 ) ;
#48 = PERSON_AND_ORGANIZATION_ROLE ( 'creator' ) ;
#49 = PERSON_AND_ORGANIZATION_ROLE ( 'design_owner' ) ;
#50 = APPROVAL_PERSON_ORGANIZATION ( #65, #170, #196 ) ;
#51 = ADVANCED_FACE ( 'NONE', ( #92, #43 ), #111, .T. ) ;
#52 = EDGE_LOOP ( 'NONE', ( #137 ) ) ;
#53 = EDGE_CURVE ( 'NONE', #155, #155, #112, .T. ) ;
#54 = ORIENTED_EDGE ( 'NONE', *, *, #182, .T. ) ;
#55 = UNCERTAINTY_MEASURE_WITH_UNIT (LENGTH_MEASURE( 1.000000000000000082E-05 ), #101, 'distance_accuracy_value', 'NONE');
#56 = FACE_OUTER_BOUND ( 'NONE', #199, .T. ) ;
#57 = CARTESIAN_POINT ( 'NONE',  ( 1.501336975702547217E-13, 0.9499999999999955147, 43.00000000000000000 ) ) ;
#58 = FACE_OUTER_BOUND ( 'NONE', #104, .T. ) ;
#59 = AXIS2_PLACEMENT_3D ( 'NONE', #107, #172, #176 ) ;
#60 = DIRECTION ( 'NONE',  ( -3.491481338843133355E-15, 1.224646799147353207E-16, -1.000000000000000000 ) ) ;
#61 = DIRECTION ( 'NONE',  ( 0.0000000000000000000, 1.000000000000000000, 0.0000000000000000000 ) ) ;
#62 = MANIFOLD_SOLID_BREP ( 'Corps-Déplacer/Copier1[1]', #86 ) ;
#63 = DIRECTION ( 'NONE',  ( 0.0000000000000000000, 0.0000000000000000000, 1.000000000000000000 ) ) ;
#64 = CIRCLE ( 'NONE', #108, 0.9500000000000008438 ) ;
#65 = PERSON_AND_ORGANIZATION ( #203, #222 ) ;
#66 = EDGE_CURVE ( 'NONE', #9, #9, #64, .T. ) ;
#67 = PERSON_AND_ORGANIZATION ( #203, #222 ) ;
#68 = DATE_AND_TIME ( #45, #147 ) ;
#69 = DIRECTION ( 'NONE',  ( 1.000000000000000000, 0.0000000000000000000, 0.0000000000000000000 ) ) ;
#70 = CIRCLE ( 'NONE', #59, 1.009999999999995124 ) ;
#71 = PRODUCT_DEFINITION_SHAPE ( 'NONE', 'NONE',  #134 ) ;
#72 = EDGE_LOOP ( 'NONE', ( #135 ) ) ;
#73 = SECURITY_CLASSIFICATION ( '', '', #19 ) ;
#74 = DATE_AND_TIME ( #37, #120 ) ;
#75 = ORIENTED_EDGE ( 'NONE', *, *, #24, .T. ) ;
#76 = DIRECTION ( 'NONE',  ( -3.491481338843133355E-15, 1.224646799147353207E-16, -1.000000000000000000 ) ) ;
#77 = ADVANCED_FACE ( 'NONE', ( #171, #128 ), #125, .T. ) ;
#78 = DIRECTION ( 'NONE',  ( -3.491481338843133355E-15, 1.224646799147353207E-16, -1.000000000000000000 ) ) ;
#79 = CARTESIAN_POINT ( 'NONE',  ( 4.334915760353080865E-14, 1.249999999999994893, 12.41569219381653966 ) ) ;
#80 = DIRECTION ( 'NONE',  ( 4.275831445896958607E-31, 1.000000000000000000, 1.224646799147353207E-16 ) ) ;
#81 = CARTESIAN_POINT ( 'NONE',  ( 4.189777606611760026E-14, 1.009999999999993570, 12.00000000000000000 ) ) ;
#82 = COORDINATED_UNIVERSAL_TIME_OFFSET ( 1, 0, .AHEAD. ) ;
#83 = CC_DESIGN_PERSON_AND_ORGANIZATION_ASSIGNMENT ( #195, #114, ( #167 ) ) ;
#84 = PERSON_AND_ORGANIZATION ( #203, #222 ) ;
#85 = APPROVAL_STATUS ( 'not_yet_approved' ) ;
#86 = CLOSED_SHELL ( 'NONE', ( #6, #89, #77, #18, #44 ) ) ;
#87 = APPROVAL_DATE_TIME ( #74, #163 ) ;
#88 = CONICAL_SURFACE ( 'NONE', #210, 1.009999999999993348, 1.029744258676649649 ) ;
#89 = ADVANCED_FACE ( 'NONE', ( #194, #110 ), #40, .T. ) ;
#90 = DIRECTION ( 'NONE',  ( 3.491481338843133355E-15, -1.224646799147353207E-16, 1.000000000000000000 ) ) ;
#91 = AXIS2_PLACEMENT_3D ( 'NONE', #193, #143, #42 ) ;
#92 = FACE_OUTER_BOUND ( 'NONE', #72, .T. ) ;
#93 = FACE_BOUND ( 'NONE', #52, .T. ) ;
#94 = FACE_OUTER_BOUND ( 'NONE', #201, .T. ) ;
#95 = AXIS2_PLACEMENT_3D ( 'NONE', #191, #158, #144 ) ;
#96 = LOCAL_TIME ( 15, 48, 17.00000000000000000, #115 ) ;
#97 = CARTESIAN_POINT ( 'NONE',  ( 4.189777606611760026E-14, 7.573786902442321255E-33, 12.00000000000000000 ) ) ;
#98 = APPROVAL_DATE_TIME ( #68, #213 ) ;
#99 = AXIS2_PLACEMENT_3D ( 'NONE', #174, #29, #28 ) ;
#100 = PERSON_AND_ORGANIZATION ( #203, #222 ) ;
#101 =( LENGTH_UNIT ( ) NAMED_UNIT ( * ) SI_UNIT ( .MILLI., .METRE. ) );
#102 = CC_DESIGN_DATE_AND_TIME_ASSIGNMENT ( #180, #34, ( #73 ) ) ;
#103 = ORIENTED_EDGE ( 'NONE', *, *, #159, .F. ) ;
#104 = EDGE_LOOP ( 'NONE', ( #54 ) ) ;
#105 = AXIS2_PLACEMENT_3D ( 'NONE', #156, #60, #12 ) ;
#106 = CARTESIAN_POINT ( 'NONE',  ( 1.501336975702547217E-13, -5.265981236333618470E-15, 43.00000000000000000 ) ) ;
#107 = CARTESIAN_POINT ( 'NONE',  ( 4.189777606611760026E-14, -1.469576158976823947E-15, 12.00000000000000000 ) ) ;
#108 = AXIS2_PLACEMENT_3D ( 'NONE', #38, #127, #206 ) ;
#109 = VERTEX_POINT ( 'NONE', #81 ) ;
#110 = FACE_OUTER_BOUND ( 'NONE', #136, .T. ) ;
#111 = CYLINDRICAL_SURFACE ( 'NONE', #105, 1.009999999999994236 ) ;
#112 = CIRCLE ( 'NONE', #20, 1.249999999999996447 ) ;
#113 = APPLICATION_PROTOCOL_DEFINITION ( 'international standard', 'config_control_design', 1994, #219 ) ;
#114 = PERSON_AND_ORGANIZATION_ROLE ( 'creator' ) ;
#115 = COORDINATED_UNIVERSAL_TIME_OFFSET ( 1, 0, .AHEAD. ) ;
#116 = APPROVAL_STATUS ( 'not_yet_approved' ) ;
#117 = CC_DESIGN_DATE_AND_TIME_ASSIGNMENT ( #214, #32, ( #134 ) ) ;
#118 = CONICAL_SURFACE ( 'NONE', #188, 0.9500000000000008438, 0.7853981633974336241 ) ;
#119 = EDGE_LOOP ( 'NONE', ( #168 ) ) ;
#120 = LOCAL_TIME ( 15, 48, 17.00000000000000000, #82 ) ;
#121 = ORIENTED_EDGE ( 'NONE', *, *, #13, .F. ) ;
#122 = SHAPE_DEFINITION_REPRESENTATION ( #71, #204 ) ;
#123 = LOCAL_TIME ( 15, 48, 17.00000000000000000, #129 ) ;
#124 = DIRECTION ( 'NONE',  ( -4.275831445896958607E-31, -1.000000000000000000, -1.224646799147353207E-16 ) ) ;
#125 = CYLINDRICAL_SURFACE ( 'NONE', #91, 1.249999999999998446 ) ;
#126 = CARTESIAN_POINT ( 'NONE',  ( 2.118872574966274209E-15, -7.432004541640603137E-17, 0.6068692252178385926 ) ) ;
#127 = DIRECTION ( 'NONE',  ( -3.491481338843133355E-15, 1.224646799147353207E-16, -1.000000000000000000 ) ) ;
#128 = FACE_OUTER_BOUND ( 'NONE', #5, .T. ) ;
#129 = COORDINATED_UNIVERSAL_TIME_OFFSET ( 1, 0, .AHEAD. ) ;
#130 = APPROVAL_ROLE ( '' ) ;
#131 = PERSON_AND_ORGANIZATION_ROLE ( 'classification_officer' ) ;
#132 = AXIS2_PLACEMENT_3D ( 'NONE', #152, #78, #173 ) ;
#133 = APPROVAL_DATE_TIME ( #47, #170 ) ;
#134 = PRODUCT_DEFINITION ( 'UNKNOWN', '', #167, #200 ) ;
#135 = ORIENTED_EDGE ( 'NONE', *, *, #182, .F. ) ;
#136 = EDGE_LOOP ( 'NONE', ( #198 ) ) ;
#137 = ORIENTED_EDGE ( 'NONE', *, *, #66, .T. ) ;
#138 = ORIENTED_EDGE ( 'NONE', *, *, #159, .T. ) ;
#139 = PLANE ( 'NONE',  #33 ) ;
#140 = DIRECTION ( 'NONE',  ( -3.491481338843133355E-15, 1.224646799147353207E-16, -1.000000000000000000 ) ) ;
#141 = APPLICATION_CONTEXT ( 'configuration controlled 3d designs of mechanical parts and assemblies' ) ;
#142 = CARTESIAN_POINT ( 'NONE',  ( 1.490862531686017501E-13, 1.249999999999995559, 42.69999999999998863 ) ) ;
#143 = DIRECTION ( 'NONE',  ( -3.491481338843133355E-15, 1.224646799147353207E-16, -1.000000000000000000 ) ) ;
#144 = DIRECTION ( 'NONE',  ( 0.0000000000000000000, 1.000000000000000000, 0.0000000000000000000 ) ) ;
#145 = CC_DESIGN_PERSON_AND_ORGANIZATION_ASSIGNMENT ( #16, #48, ( #134 ) ) ;
#146 = COORDINATED_UNIVERSAL_TIME_OFFSET ( 1, 0, .AHEAD. ) ;
#147 = LOCAL_TIME ( 15, 48, 17.00000000000000000, #146 ) ;
#148 = CARTESIAN_POINT ( 'NONE',  ( 0.0000000000000000000, 0.0000000000000000000, 0.0000000000000000000 ) ) ;
#149 = APPROVAL_STATUS ( 'not_yet_approved' ) ;
#150 =( GEOMETRIC_REPRESENTATION_CONTEXT ( 3 ) GLOBAL_UNCERTAINTY_ASSIGNED_CONTEXT ( ( #55 ) ) GLOBAL_UNIT_ASSIGNED_CONTEXT ( ( #101, #17, #218 ) ) REPRESENTATION_CONTEXT ( 'NONE', 'WORKASPACE' ) );
#151 = ORIENTED_EDGE ( 'NONE', *, *, #24, .F. ) ;
#152 = CARTESIAN_POINT ( 'NONE',  ( 4.189777606611760026E-14, -1.469576158976823947E-15, 12.00000000000000000 ) ) ;
#153 = CC_DESIGN_APPROVAL ( #163, ( #73 ) ) ;
#154 = EDGE_LOOP ( 'NONE', ( #75 ) ) ;
#155 = VERTEX_POINT ( 'NONE', #79 ) ;
#156 = CARTESIAN_POINT ( 'NONE',  ( 0.0000000000000000000, 0.0000000000000000000, 0.0000000000000000000 ) ) ;
#157 = PLANE ( 'NONE',  #221 ) ;
#158 = DIRECTION ( 'NONE',  ( -3.491481338843133355E-15, 1.224646799147353207E-16, -1.000000000000000000 ) ) ;
#159 = EDGE_CURVE ( 'NONE', #26, #26, #15, .T. ) ;
#160 = CLOSED_SHELL ( 'NONE', ( #211, #51, #183 ) ) ;
#161 = APPROVAL_PERSON_ORGANIZATION ( #166, #163, #181 ) ;
#162 = VERTEX_POINT ( 'NONE', #39 ) ;
#163 = APPROVAL ( #149, 'UNSPECIFIED' ) ;
#164 = CARTESIAN_POINT ( 'NONE',  ( 2.118872574966274603E-15, 1.009999999999993348, 0.6068692252178387037 ) ) ;
#165 = PERSON_AND_ORGANIZATION_ROLE ( 'design_supplier' ) ;
#166 = PERSON_AND_ORGANIZATION ( #203, #222 ) ;
#167 = PRODUCT_DEFINITION_FORMATION_WITH_SPECIFIED_SOURCE ( 'ANY', '', #175, .NOT_KNOWN. ) ;
#168 = ORIENTED_EDGE ( 'NONE', *, *, #66, .F. ) ;
#169 = DIRECTION ( 'NONE',  ( -4.275831445896958607E-31, -1.000000000000000000, -1.224646799147353207E-16 ) ) ;
#170 = APPROVAL ( #85, 'UNSPECIFIED' ) ;
#171 = FACE_OUTER_BOUND ( 'NONE', #1, .T. ) ;
#172 = DIRECTION ( 'NONE',  ( -3.491481338843133355E-15, 1.224646799147353207E-16, -1.000000000000000000 ) ) ;
#173 = DIRECTION ( 'NONE',  ( 0.0000000000000000000, 1.000000000000000000, 0.0000000000000000000 ) ) ;
#174 = CARTESIAN_POINT ( 'NONE',  ( 4.334915760353080865E-14, -1.520483770435620548E-15, 12.41569219381653966 ) ) ;
#175 = PRODUCT ( '47857', '47857', '', ( #31 ) ) ;
#176 = DIRECTION ( 'NONE',  ( 0.0000000000000000000, 1.000000000000000000, 0.0000000000000000000 ) ) ;
#177 = CC_DESIGN_PERSON_AND_ORGANIZATION_ASSIGNMENT ( #84, #131, ( #73 ) ) ;
#178 = APPLICATION_PROTOCOL_DEFINITION ( 'international standard', 'config_control_design', 1994, #141 ) ;
#179 = CALENDAR_DATE ( 2021, 7, 10 ) ;
#180 = DATE_AND_TIME ( #197, #46 ) ;
#181 = APPROVAL_ROLE ( '' ) ;
#182 = EDGE_CURVE ( 'NONE', #35, #35, #30, .T. ) ;
#183 = ADVANCED_FACE ( 'NONE', ( #94 ), #139, .T. ) ;
#184 = ORIENTED_EDGE ( 'NONE', *, *, #53, .F. ) ;
#185 = CC_DESIGN_APPROVAL ( #213, ( #134 ) ) ;
#186 = ORIENTED_EDGE ( 'NONE', *, *, #13, .T. ) ;
#187 = FACE_OUTER_BOUND ( 'NONE', #21, .T. ) ;
#188 = AXIS2_PLACEMENT_3D ( 'NONE', #106, #41, #61 ) ;
#189 = DIRECTION ( 'NONE',  ( 0.0000000000000000000, 1.000000000000000000, 0.0000000000000000000 ) ) ;
#190 = DIRECTION ( 'NONE',  ( -3.813722662152967456E-31, -1.000000000000000000, -1.073467497510407515E-16 ) ) ;
#191 = CARTESIAN_POINT ( 'NONE',  ( 1.490862531686017501E-13, -5.229241832359196822E-15, 42.69999999999998863 ) ) ;
#192 = APPROVAL_PERSON_ORGANIZATION ( #67, #213, #130 ) ;
#193 = CARTESIAN_POINT ( 'NONE',  ( 0.0000000000000000000, 0.0000000000000000000, 0.0000000000000000000 ) ) ;
#194 = FACE_BOUND ( 'NONE', #2, .T. ) ;
#195 = PERSON_AND_ORGANIZATION ( #203, #222 ) ;
#196 = APPROVAL_ROLE ( '' ) ;
#197 = CALENDAR_DATE ( 2021, 7, 10 ) ;
#198 = ORIENTED_EDGE ( 'NONE', *, *, #53, .T. ) ;
#199 = EDGE_LOOP ( 'NONE', ( #103 ) ) ;
#200 = DESIGN_CONTEXT ( 'detailed design', #141, 'design' ) ;
#201 = EDGE_LOOP ( 'NONE', ( #151 ) ) ;
#202 = DIRECTION ( 'NONE',  ( 3.491481338843133355E-15, -1.224646799147353207E-16, 1.000000000000000000 ) ) ;
#203 = PERSON ( 'UNSPECIFIED', 'UNSPECIFIED', 'UNSPECIFIED', ('UNSPECIFIED'), ('UNSPECIFIED'), ('UNSPECIFIED') ) ;
#204 = ADVANCED_BREP_SHAPE_REPRESENTATION ( '47857', ( #62, #215, #25 ), #150 ) ;
#205 = AXIS2_PLACEMENT_3D ( 'NONE', #22, #202, #169 ) ;
#206 = DIRECTION ( 'NONE',  ( 0.0000000000000000000, 1.000000000000000000, 0.0000000000000000000 ) ) ;
#207 = CARTESIAN_POINT ( 'NONE',  ( 4.334915760353080865E-14, -1.520483770435620548E-15, 12.41569219381653966 ) ) ;
#208 = DIRECTION ( 'NONE',  ( -3.491481338843133355E-15, 1.224646799147353207E-16, -1.000000000000000000 ) ) ;
#209 = CARTESIAN_POINT ( 'NONE',  ( 1.501336975702547217E-13, 7.123858967643751109E-33, 43.00000000000000000 ) ) ;
#210 = AXIS2_PLACEMENT_3D ( 'NONE', #126, #90, #190 ) ;
#211 = ADVANCED_FACE ( 'NONE', ( #58 ), #88, .T. ) ;
#212 = CARTESIAN_POINT ( 'NONE',  ( 2.118872574966274209E-15, -7.432004541640603137E-17, 0.6068692252178385926 ) ) ;
#213 = APPROVAL ( #116, 'UNSPECIFIED' ) ;
#214 = DATE_AND_TIME ( #216, #96 ) ;
#215 = MANIFOLD_SOLID_BREP ( 'Corps-Déplacer/Copier1[2]', #160 ) ;
#216 = CALENDAR_DATE ( 2021, 7, 10 ) ;
#217 = PERSON_AND_ORGANIZATION ( #203, #222 ) ;
#218 =( NAMED_UNIT ( * ) SI_UNIT ( $, .STERADIAN. ) SOLID_ANGLE_UNIT ( ) );
#219 = APPLICATION_CONTEXT ( 'configuration controlled 3d designs of mechanical parts and assemblies' ) ;
#220 = COORDINATED_UNIVERSAL_TIME_OFFSET ( 1, 0, .AHEAD. ) ;
#221 = AXIS2_PLACEMENT_3D ( 'NONE', #209, #140, #80 ) ;
#222 = ORGANIZATION ( 'UNSPECIFIED', 'UNSPECIFIED', '' ) ;
#223 = CC_DESIGN_PERSON_AND_ORGANIZATION_ASSIGNMENT ( #100, #165, ( #167 ) ) ;
ENDSEC;
END-ISO-10303-21;
