ISO-10303-21;
HEADER;
FILE_DESCRIPTION (( 'STEP AP203' ),
    '1' );
FILE_NAME ('47716.step',
    '2021-09-21T07:37:59',
    ( '' ),
    ( '' ),
    'SwSTEP 2.0',
    'SolidWorks 2019',
    '' );
FILE_SCHEMA (( 'CONFIG_CONTROL_DESIGN' ));
ENDSEC;

DATA;
#1 = COORDINATED_UNIVERSAL_TIME_OFFSET ( 1, 0, .AHEAD. ) ;
#2 = DATE_TIME_ROLE ( 'creation_date' ) ;
#3 =( NAMED_UNIT ( * ) SI_UNIT ( $, .STERADIAN. ) SOLID_ANGLE_UNIT ( ) );
#4 = EDGE_LOOP ( 'NONE', ( #81, #82 ) ) ;
#5 = CONICAL_SURFACE ( 'NONE', #115, 2.499999999999994227, 0.7853981633974428389 ) ;
#6 = EDGE_CURVE ( 'NONE', #14, #28, #169, .T. ) ;
#7 = CC_DESIGN_SECURITY_CLASSIFICATION ( #20, ( #97 ) ) ;
#8 = ORIENTED_EDGE ( 'NONE', *, *, #251, .F. ) ;
#9 = DESIGN_CONTEXT ( 'detailed design', #89, 'design' ) ;
#10 = ORIENTED_EDGE ( 'NONE', *, *, #54, .F. ) ;
#11 = VERTEX_POINT ( 'NONE', #59 ) ;
#12 = EDGE_CURVE ( 'NONE', #42, #259, #258, .T. ) ;
#13 = CIRCLE ( 'NONE', #80, 2.499999999999994227 ) ;
#14 = VERTEX_POINT ( 'NONE', #192 ) ;
#15 = CARTESIAN_POINT ( 'NONE',  ( 8.728703347107905963E-15, -2.499999999999994671, 2.500000000000020872 ) ) ;
#16 = CARTESIAN_POINT ( 'NONE',  ( 1.748189963019861381E-13, -2.000000000000008438, 50.00000000000000000 ) ) ;
#17 = EDGE_CURVE ( 'NONE', #11, #28, #194, .T. ) ;
#18 = FACE_OUTER_BOUND ( 'NONE', #170, .T. ) ;
#19 = CIRCLE ( 'NONE', #253, 2.500000000000002220 ) ;
#20 = SECURITY_CLASSIFICATION ( '', '', #76 ) ;
#21 = PLANE ( 'NONE',  #105 ) ;
#22 = PERSON_AND_ORGANIZATION ( #226, #47 ) ;
#23 = AXIS2_PLACEMENT_3D ( 'NONE', #71, #75, #118 ) ;
#24 = SHAPE_DEFINITION_REPRESENTATION ( #149, #29 ) ;
#25 = DIRECTION ( 'NONE',  ( -3.491481338843133355E-15, 1.224646799147353207E-16, -1.000000000000000000 ) ) ;
#26 = PERSON_AND_ORGANIZATION ( #226, #47 ) ;
#27 =( LENGTH_UNIT ( ) NAMED_UNIT ( * ) SI_UNIT ( .MILLI., .METRE. ) );
#28 = VERTEX_POINT ( 'NONE', #109 ) ;
#29 = ADVANCED_BREP_SHAPE_REPRESENTATION ( '47716', ( #249, #156, #23 ), #100 ) ;
#30 = EDGE_LOOP ( 'NONE', ( #233, #85, #181, #191 ) ) ;
#31 = CARTESIAN_POINT ( 'NONE',  ( 1.745740669421566678E-13, -6.123233995736766085E-15, 50.00000000000000000 ) ) ;
#32 = CARTESIAN_POINT ( 'NONE',  ( 8.728703347107907541E-15, -3.061616997868408779E-16, 2.500000000000021316 ) ) ;
#33 = APPROVAL_PERSON_ORGANIZATION ( #26, #205, #73 ) ;
#34 = APPLICATION_CONTEXT ( 'configuration controlled 3d designs of mechanical parts and assemblies' ) ;
#35 = ADVANCED_FACE ( 'NONE', ( #254 ), #171, .T. ) ;
#36 = PLANE ( 'NONE',  #157 ) ;
#37 = CIRCLE ( 'NONE', #62, 2.499999999999994227 ) ;
#38 = CIRCLE ( 'NONE', #236, 2.499999999999994227 ) ;
#39 = DIRECTION ( 'NONE',  ( -2.382254525458717469E-15, -0.7071067811865471286, -0.7071067811865479058 ) ) ;
#40 = EDGE_CURVE ( 'NONE', #28, #11, #37, .T. ) ;
#41 = DIRECTION ( 'NONE',  ( -3.491481338843133355E-15, 1.224646799147353207E-16, -1.000000000000000000 ) ) ;
#42 = VERTEX_POINT ( 'NONE', #235 ) ;
#43 = APPROVAL ( #78, 'UNSPECIFIED' ) ;
#44 = ORIENTED_EDGE ( 'NONE', *, *, #268, .T. ) ;
#45 = CIRCLE ( 'NONE', #225, 2.500000000000002220 ) ;
#46 = PERSON_AND_ORGANIZATION ( #226, #47 ) ;
#47 = ORGANIZATION ( 'UNSPECIFIED', 'UNSPECIFIED', '' ) ;
#48 = DIRECTION ( 'NONE',  ( -3.491481338843133355E-15, 1.224646799147353207E-16, -1.000000000000000000 ) ) ;
#49 = ORIENTED_EDGE ( 'NONE', *, *, #211, .F. ) ;
#50 = DATE_AND_TIME ( #98, #238 ) ;
#51 = PERSON_AND_ORGANIZATION ( #226, #47 ) ;
#52 = APPROVAL_ROLE ( '' ) ;
#53 = ORIENTED_EDGE ( 'NONE', *, *, #102, .T. ) ;
#54 = EDGE_CURVE ( 'NONE', #165, #232, #112, .T. ) ;
#55 = APPLICATION_PROTOCOL_DEFINITION ( 'international standard', 'config_control_design', 1994, #34 ) ;
#56 = DIRECTION ( 'NONE',  ( 0.0000000000000000000, 1.000000000000000000, 0.0000000000000000000 ) ) ;
#57 = VERTEX_POINT ( 'NONE', #220 ) ;
#58 = DIRECTION ( 'NONE',  ( -2.468850131082266527E-15, 0.7071067811865473507, -0.7071067811865477948 ) ) ;
#59 = CARTESIAN_POINT ( 'NONE',  ( 8.728703347107909119E-15, 2.499999999999993783, 2.500000000000021760 ) ) ;
#60 = CARTESIAN_POINT ( 'NONE',  ( 1.745740669421566678E-13, -6.123233995736766085E-15, 50.00000000000000000 ) ) ;
#61 = LINE ( 'NONE', #154, #69 ) ;
#62 = AXIS2_PLACEMENT_3D ( 'NONE', #195, #25, #113 ) ;
#63 = DIRECTION ( 'NONE',  ( 3.491481338843133355E-15, -1.224646799147353207E-16, 1.000000000000000000 ) ) ;
#64 = CC_DESIGN_APPROVAL ( #43, ( #20 ) ) ;
#65 = CC_DESIGN_PERSON_AND_ORGANIZATION_ASSIGNMENT ( #46, #224, ( #97 ) ) ;
#66 = DIRECTION ( 'NONE',  ( -3.491481338843133355E-15, 1.224646799147353207E-16, -1.000000000000000000 ) ) ;
#67 = CARTESIAN_POINT ( 'NONE',  ( 0.0000000000000000000, 0.0000000000000000000, 0.0000000000000000000 ) ) ;
#68 = AXIS2_PLACEMENT_3D ( 'NONE', #148, #274, #234 ) ;
#69 = VECTOR ( 'NONE', #282, 1000.000000000000000 ) ;
#70 = ORIENTED_EDGE ( 'NONE', *, *, #140, .T. ) ;
#71 = CARTESIAN_POINT ( 'NONE',  ( 0.0000000000000000000, 0.0000000000000000000, 0.0000000000000000000 ) ) ;
#72 = CARTESIAN_POINT ( 'NONE',  ( 1.745740669421566678E-13, 1.999999999999996225, 50.00000000000000000 ) ) ;
#73 = APPROVAL_ROLE ( '' ) ;
#74 = ADVANCED_FACE ( 'NONE', ( #262 ), #283, .T. ) ;
#75 = DIRECTION ( 'NONE',  ( 0.0000000000000000000, 0.0000000000000000000, 1.000000000000000000 ) ) ;
#76 = SECURITY_CLASSIFICATION_LEVEL ( 'unclassified' ) ;
#77 = ADVANCED_FACE ( 'NONE', ( #158 ), #151, .T. ) ;
#78 = APPROVAL_STATUS ( 'not_yet_approved' ) ;
#79 = AXIS2_PLACEMENT_3D ( 'NONE', #217, #280, #198 ) ;
#80 = AXIS2_PLACEMENT_3D ( 'NONE', #32, #240, #155 ) ;
#81 = ORIENTED_EDGE ( 'NONE', *, *, #17, .T. ) ;
#82 = ORIENTED_EDGE ( 'NONE', *, *, #40, .T. ) ;
#83 = ORIENTED_EDGE ( 'NONE', *, *, #175, .T. ) ;
#84 = VECTOR ( 'NONE', #134, 999.9999999999998863 ) ;
#85 = ORIENTED_EDGE ( 'NONE', *, *, #6, .T. ) ;
#86 = DIRECTION ( 'NONE',  ( -3.491481338843133355E-15, 1.224646799147353207E-16, -1.000000000000000000 ) ) ;
#87 = CARTESIAN_POINT ( 'NONE',  ( 8.728703347107920163E-15, -4.336808689942061123E-16, 2.500000000000024869 ) ) ;
#88 = EDGE_CURVE ( 'NONE', #57, #232, #13, .T. ) ;
#89 = APPLICATION_CONTEXT ( 'configuration controlled 3d designs of mechanical parts and assemblies' ) ;
#90 = CARTESIAN_POINT ( 'NONE',  ( 1.068957861474239039E-30, 2.499999999999998224, 3.061616997868381169E-16 ) ) ;
#91 = LOCAL_TIME ( 9, 37, 59.00000000000000000, #142 ) ;
#92 = FACE_OUTER_BOUND ( 'NONE', #4, .T. ) ;
#93 = CYLINDRICAL_SURFACE ( 'NONE', #166, 2.499999999999998224 ) ;
#94 = VECTOR ( 'NONE', #127, 1000.000000000000000 ) ;
#95 = CARTESIAN_POINT ( 'NONE',  ( 1.745740669421566678E-13, 1.999999999999996225, 50.00000000000000000 ) ) ;
#96 = VECTOR ( 'NONE', #39, 1000.000000000000000 ) ;
#97 = PRODUCT_DEFINITION_FORMATION_WITH_SPECIFIED_SOURCE ( 'ANY', '', #257, .NOT_KNOWN. ) ;
#98 = CALENDAR_DATE ( 2021, 21, 9 ) ;
#99 = CLOSED_SHELL ( 'NONE', ( #237, #74, #286 ) ) ;
#100 =( GEOMETRIC_REPRESENTATION_CONTEXT ( 3 ) GLOBAL_UNCERTAINTY_ASSIGNED_CONTEXT ( ( #281 ) ) GLOBAL_UNIT_ASSIGNED_CONTEXT ( ( #27, #119, #3 ) ) REPRESENTATION_CONTEXT ( 'NONE', 'WORKASPACE' ) );
#101 = DATE_AND_TIME ( #284, #91 ) ;
#102 = EDGE_CURVE ( 'NONE', #14, #128, #19, .T. ) ;
#103 = PERSON_AND_ORGANIZATION ( #226, #47 ) ;
#104 = AXIS2_PLACEMENT_3D ( 'NONE', #31, #213, #229 ) ;
#105 = AXIS2_PLACEMENT_3D ( 'NONE', #146, #207, #231 ) ;
#106 = ORIENTED_EDGE ( 'NONE', *, *, #251, .T. ) ;
#107 = EDGE_LOOP ( 'NONE', ( #126, #275, #208 ) ) ;
#108 = ORIENTED_EDGE ( 'NONE', *, *, #12, .F. ) ;
#109 = CARTESIAN_POINT ( 'NONE',  ( 9.108467650970827986E-14, -2.499999999999994671, 2.500000000000020872 ) ) ;
#110 = CC_DESIGN_PERSON_AND_ORGANIZATION_ASSIGNMENT ( #244, #201, ( #257 ) ) ;
#111 = DIRECTION ( 'NONE',  ( -3.491481338843133355E-15, 1.224646799147353207E-16, -1.000000000000000000 ) ) ;
#112 = LINE ( 'NONE', #278, #84 ) ;
#113 = DIRECTION ( 'NONE',  ( 6.162975822039168743E-31, 1.000000000000000000, 1.734723475976811039E-16 ) ) ;
#114 = LINE ( 'NONE', #16, #96 ) ;
#115 = AXIS2_PLACEMENT_3D ( 'NONE', #174, #63, #239 ) ;
#116 = LOCAL_TIME ( 9, 37, 59.00000000000000000, #123 ) ;
#117 = CC_DESIGN_PERSON_AND_ORGANIZATION_ASSIGNMENT ( #103, #185, ( #97 ) ) ;
#118 = DIRECTION ( 'NONE',  ( 1.000000000000000000, 0.0000000000000000000, 0.0000000000000000000 ) ) ;
#119 =( NAMED_UNIT ( * ) PLANE_ANGLE_UNIT ( ) SI_UNIT ( $, .RADIAN. ) );
#120 = APPROVAL_DATE_TIME ( #122, #187 ) ;
#121 = ADVANCED_FACE ( 'NONE', ( #92 ), #36, .F. ) ;
#122 = DATE_AND_TIME ( #143, #116 ) ;
#123 = COORDINATED_UNIVERSAL_TIME_OFFSET ( 1, 0, .AHEAD. ) ;
#124 = ORIENTED_EDGE ( 'NONE', *, *, #6, .F. ) ;
#125 = FACE_OUTER_BOUND ( 'NONE', #173, .T. ) ;
#126 = ORIENTED_EDGE ( 'NONE', *, *, #175, .F. ) ;
#127 = DIRECTION ( 'NONE',  ( -3.491481338843133355E-15, 1.224646799147353207E-16, -1.000000000000000000 ) ) ;
#128 = VERTEX_POINT ( 'NONE', #176 ) ;
#129 = CARTESIAN_POINT ( 'NONE',  ( 3.061616997868370322E-16, -2.499999999999998224, -3.061616997868391523E-16 ) ) ;
#130 = DIRECTION ( 'NONE',  ( 3.491481338843133355E-15, -1.224646799147353207E-16, 1.000000000000000000 ) ) ;
#131 = CC_DESIGN_DATE_AND_TIME_ASSIGNMENT ( #223, #270, ( #20 ) ) ;
#132 = CARTESIAN_POINT ( 'NONE',  ( 1.728283262727351074E-13, -6.062001655779398511E-15, 49.50000000000000000 ) ) ;
#133 = DIRECTION ( 'NONE',  ( -4.275831445896958607E-31, -1.000000000000000000, -1.224646799147353207E-16 ) ) ;
#134 = DIRECTION ( 'NONE',  ( 2.468850131082278754E-15, -0.7071067811865439090, 0.7071067811865512365 ) ) ;
#135 = ORIENTED_EDGE ( 'NONE', *, *, #102, .F. ) ;
#136 = CC_DESIGN_PERSON_AND_ORGANIZATION_ASSIGNMENT ( #22, #228, ( #20 ) ) ;
#137 = ORIENTED_EDGE ( 'NONE', *, *, #88, .T. ) ;
#138 = LINE ( 'NONE', #95, #267 ) ;
#139 = APPROVAL_STATUS ( 'not_yet_approved' ) ;
#140 = EDGE_CURVE ( 'NONE', #42, #14, #114, .T. ) ;
#141 = VECTOR ( 'NONE', #111, 1000.000000000000000 ) ;
#142 = COORDINATED_UNIVERSAL_TIME_OFFSET ( 1, 0, .AHEAD. ) ;
#143 = CALENDAR_DATE ( 2021, 21, 9 ) ;
#144 = CARTESIAN_POINT ( 'NONE',  ( 0.0000000000000000000, 0.0000000000000000000, 0.0000000000000000000 ) ) ;
#145 = ORIENTED_EDGE ( 'NONE', *, *, #40, .F. ) ;
#146 = CARTESIAN_POINT ( 'NONE',  ( 8.728703347107920163E-15, -4.336808689942061123E-16, 2.500000000000024869 ) ) ;
#147 = DIRECTION ( 'NONE',  ( -3.491481338843133355E-15, 1.224646799147353207E-16, -1.000000000000000000 ) ) ;
#148 = CARTESIAN_POINT ( 'NONE',  ( 8.728703347107907541E-15, -3.061616997868408779E-16, 2.500000000000021316 ) ) ;
#149 = PRODUCT_DEFINITION_SHAPE ( 'NONE', 'NONE',  #227 ) ;
#150 = CARTESIAN_POINT ( 'NONE',  ( 1.728283262727351074E-13, -6.062001655779398511E-15, 49.50000000000000000 ) ) ;
#151 = CONICAL_SURFACE ( 'NONE', #245, 2.000000000000002220, 0.7853981633974479459 ) ;
#152 = CC_DESIGN_APPROVAL ( #187, ( #97 ) ) ;
#153 = DIRECTION ( 'NONE',  ( -3.491481338843133355E-15, 1.224646799147353207E-16, -1.000000000000000000 ) ) ;
#154 = CARTESIAN_POINT ( 'NONE',  ( 9.034865046894746989E-15, 2.499999999999993783, 2.500000000000021760 ) ) ;
#155 = DIRECTION ( 'NONE',  ( 6.162975822039168743E-31, 1.000000000000000000, 1.734723475976811039E-16 ) ) ;
#156 = MANIFOLD_SOLID_BREP ( 'Corps-Déplacer/Copier1[2]', #99 ) ;
#157 = AXIS2_PLACEMENT_3D ( 'NONE', #87, #130, #133 ) ;
#158 = FACE_OUTER_BOUND ( 'NONE', #230, .T. ) ;
#159 = FACE_OUTER_BOUND ( 'NONE', #30, .T. ) ;
#160 = CC_DESIGN_DATE_AND_TIME_ASSIGNMENT ( #50, #2, ( #227 ) ) ;
#161 = PLANE ( 'NONE',  #221 ) ;
#162 = CARTESIAN_POINT ( 'NONE',  ( 1.745740669421566678E-13, -6.123233995736766085E-15, 50.00000000000000000 ) ) ;
#163 = CALENDAR_DATE ( 2021, 21, 9 ) ;
#164 = CALENDAR_DATE ( 2021, 21, 9 ) ;
#165 = VERTEX_POINT ( 'NONE', #67 ) ;
#166 = AXIS2_PLACEMENT_3D ( 'NONE', #215, #177, #260 ) ;
#167 = APPROVAL_DATE_TIME ( #101, #43 ) ;
#168 = ORIENTED_EDGE ( 'NONE', *, *, #261, .F. ) ;
#169 = LINE ( 'NONE', #129, #94 ) ;
#170 = EDGE_LOOP ( 'NONE', ( #188, #108 ) ) ;
#171 = CONICAL_SURFACE ( 'NONE', #104, 2.000000000000002220, 0.7853981633974479459 ) ;
#172 = APPROVAL_PERSON_ORGANIZATION ( #266, #187, #255 ) ;
#173 = EDGE_LOOP ( 'NONE', ( #168, #272 ) ) ;
#174 = CARTESIAN_POINT ( 'NONE',  ( 8.728703347107907541E-15, -3.061616997868408779E-16, 2.500000000000021316 ) ) ;
#175 = EDGE_CURVE ( 'NONE', #165, #57, #61, .T. ) ;
#176 = CARTESIAN_POINT ( 'NONE',  ( 1.728283262727351074E-13, 2.499999999999996003, 49.50000000000000000 ) ) ;
#177 = DIRECTION ( 'NONE',  ( -3.491481338843133355E-15, 1.224646799147353207E-16, -1.000000000000000000 ) ) ;
#178 = CC_DESIGN_APPROVAL ( #205, ( #227 ) ) ;
#179 = DIRECTION ( 'NONE',  ( 6.162975822039168743E-31, 1.000000000000000000, 1.734723475976811039E-16 ) ) ;
#180 = EDGE_LOOP ( 'NONE', ( #124, #53, #193, #145 ) ) ;
#181 = ORIENTED_EDGE ( 'NONE', *, *, #17, .F. ) ;
#182 = CIRCLE ( 'NONE', #189, 2.000000000000002220 ) ;
#183 = PERSON_AND_ORGANIZATION_ROLE ( 'creator' ) ;
#184 = COORDINATED_UNIVERSAL_TIME_OFFSET ( 1, 0, .AHEAD. ) ;
#185 = PERSON_AND_ORGANIZATION_ROLE ( 'design_supplier' ) ;
#186 = DIRECTION ( 'NONE',  ( 4.275831445896959482E-31, 1.000000000000000000, 1.224646799147353454E-16 ) ) ;
#187 = APPROVAL ( #139, 'UNSPECIFIED' ) ;
#188 = ORIENTED_EDGE ( 'NONE', *, *, #268, .F. ) ;
#189 = AXIS2_PLACEMENT_3D ( 'NONE', #162, #247, #56 ) ;
#190 = APPROVAL_PERSON_ORGANIZATION ( #252, #43, #52 ) ;
#191 = ORIENTED_EDGE ( 'NONE', *, *, #196, .F. ) ;
#192 = CARTESIAN_POINT ( 'NONE',  ( 9.108467650970812840E-14, -2.500000000000008882, 49.50000000000000000 ) ) ;
#193 = ORIENTED_EDGE ( 'NONE', *, *, #196, .T. ) ;
#194 = CIRCLE ( 'NONE', #68, 2.499999999999994227 ) ;
#195 = CARTESIAN_POINT ( 'NONE',  ( 8.728703347107907541E-15, -3.061616997868408779E-16, 2.500000000000021316 ) ) ;
#196 = EDGE_CURVE ( 'NONE', #128, #11, #241, .T. ) ;
#197 = ADVANCED_FACE ( 'NONE', ( #219 ), #93, .T. ) ;
#198 = DIRECTION ( 'NONE',  ( -6.162975822039168743E-31, -1.000000000000000000, -1.734723475976811039E-16 ) ) ;
#199 = APPROVAL_STATUS ( 'not_yet_approved' ) ;
#200 = DIRECTION ( 'NONE',  ( -3.491481338843133355E-15, 1.224646799147353207E-16, -1.000000000000000000 ) ) ;
#201 = PERSON_AND_ORGANIZATION_ROLE ( 'design_owner' ) ;
#202 = DIRECTION ( 'NONE',  ( 4.275831445896958607E-31, 1.000000000000000000, 1.224646799147353207E-16 ) ) ;
#203 = PRODUCT_RELATED_PRODUCT_CATEGORY ( 'detail', '', ( #257 ) ) ;
#204 = AXIS2_PLACEMENT_3D ( 'NONE', #60, #147, #210 ) ;
#205 = APPROVAL ( #199, 'UNSPECIFIED' ) ;
#206 = ORIENTED_EDGE ( 'NONE', *, *, #12, .T. ) ;
#207 = DIRECTION ( 'NONE',  ( 3.491481338843133355E-15, -1.224646799147353207E-16, 1.000000000000000000 ) ) ;
#208 = ORIENTED_EDGE ( 'NONE', *, *, #261, .T. ) ;
#209 = LOCAL_TIME ( 9, 37, 59.00000000000000000, #285 ) ;
#210 = DIRECTION ( 'NONE',  ( 0.0000000000000000000, 1.000000000000000000, 0.0000000000000000000 ) ) ;
#211 = EDGE_CURVE ( 'NONE', #128, #14, #45, .T. ) ;
#212 = EDGE_LOOP ( 'NONE', ( #44, #70, #49, #8 ) ) ;
#213 = DIRECTION ( 'NONE',  ( -3.491481338843133355E-15, 1.224646799147353207E-16, -1.000000000000000000 ) ) ;
#214 = CLOSED_SHELL ( 'NONE', ( #35, #273, #121, #197, #77, #276 ) ) ;
#215 = CARTESIAN_POINT ( 'NONE',  ( 0.0000000000000000000, 0.0000000000000000000, 0.0000000000000000000 ) ) ;
#216 = CC_DESIGN_PERSON_AND_ORGANIZATION_ASSIGNMENT ( #51, #183, ( #227 ) ) ;
#217 = CARTESIAN_POINT ( 'NONE',  ( 8.728703347107907541E-15, -3.061616997868408779E-16, 2.500000000000021316 ) ) ;
#218 = DIRECTION ( 'NONE',  ( 0.0000000000000000000, 1.000000000000000000, 0.0000000000000000000 ) ) ;
#219 = FACE_OUTER_BOUND ( 'NONE', #180, .T. ) ;
#220 = CARTESIAN_POINT ( 'NONE',  ( 9.034865046894746989E-15, 2.499999999999993783, 2.500000000000021760 ) ) ;
#221 = AXIS2_PLACEMENT_3D ( 'NONE', #243, #48, #202 ) ;
#222 = CYLINDRICAL_SURFACE ( 'NONE', #263, 2.499999999999998224 ) ;
#223 = DATE_AND_TIME ( #164, #209 ) ;
#224 = PERSON_AND_ORGANIZATION_ROLE ( 'creator' ) ;
#225 = AXIS2_PLACEMENT_3D ( 'NONE', #150, #153, #218 ) ;
#226 = PERSON ( 'UNSPECIFIED', 'UNSPECIFIED', 'UNSPECIFIED', ('UNSPECIFIED'), ('UNSPECIFIED'), ('UNSPECIFIED') ) ;
#227 = PRODUCT_DEFINITION ( 'UNKNOWN', '', #97, #9 ) ;
#228 = PERSON_AND_ORGANIZATION_ROLE ( 'classification_officer' ) ;
#229 = DIRECTION ( 'NONE',  ( 0.0000000000000000000, 1.000000000000000000, 0.0000000000000000000 ) ) ;
#230 = EDGE_LOOP ( 'NONE', ( #277, #206, #106, #135 ) ) ;
#231 = DIRECTION ( 'NONE',  ( -4.275831445896958607E-31, -1.000000000000000000, -1.224646799147353207E-16 ) ) ;
#232 = VERTEX_POINT ( 'NONE', #15 ) ;
#233 = ORIENTED_EDGE ( 'NONE', *, *, #211, .T. ) ;
#234 = DIRECTION ( 'NONE',  ( 6.162975822039168743E-31, 1.000000000000000000, 1.734723475976811039E-16 ) ) ;
#235 = CARTESIAN_POINT ( 'NONE',  ( 1.739767421372540480E-13, -2.000000000000008438, 50.00000000000000000 ) ) ;
#236 = AXIS2_PLACEMENT_3D ( 'NONE', #256, #41, #179 ) ;
#237 = ADVANCED_FACE ( 'NONE', ( #265 ), #5, .T. ) ;
#238 = LOCAL_TIME ( 9, 37, 59.00000000000000000, #1 ) ;
#239 = DIRECTION ( 'NONE',  ( -6.162975822039168743E-31, -1.000000000000000000, -1.734723475976811039E-16 ) ) ;
#240 = DIRECTION ( 'NONE',  ( -3.491481338843133355E-15, 1.224646799147353207E-16, -1.000000000000000000 ) ) ;
#241 = LINE ( 'NONE', #90, #141 ) ;
#242 = DIRECTION ( 'NONE',  ( 0.0000000000000000000, 1.000000000000000000, 0.0000000000000000000 ) ) ;
#243 = CARTESIAN_POINT ( 'NONE',  ( 1.745740669421566678E-13, 1.499759782661850218E-32, 50.00000000000000000 ) ) ;
#244 = PERSON_AND_ORGANIZATION ( #226, #47 ) ;
#245 = AXIS2_PLACEMENT_3D ( 'NONE', #279, #66, #264 ) ;
#246 = LOCAL_TIME ( 9, 37, 59.00000000000000000, #184 ) ;
#247 = DIRECTION ( 'NONE',  ( -3.491481338843133355E-15, 1.224646799147353207E-16, -1.000000000000000000 ) ) ;
#248 = MECHANICAL_CONTEXT ( 'NONE', #34, 'mechanical' ) ;
#249 = MANIFOLD_SOLID_BREP ( 'Corps-Déplacer/Copier1[1]', #214 ) ;
#250 = APPLICATION_PROTOCOL_DEFINITION ( 'international standard', 'config_control_design', 1994, #89 ) ;
#251 = EDGE_CURVE ( 'NONE', #259, #128, #138, .T. ) ;
#252 = PERSON_AND_ORGANIZATION ( #226, #47 ) ;
#253 = AXIS2_PLACEMENT_3D ( 'NONE', #132, #86, #242 ) ;
#254 = FACE_OUTER_BOUND ( 'NONE', #212, .T. ) ;
#255 = APPROVAL_ROLE ( '' ) ;
#256 = CARTESIAN_POINT ( 'NONE',  ( 8.728703347107907541E-15, -3.061616997868408779E-16, 2.500000000000021316 ) ) ;
#257 = PRODUCT ( '47716', '47716', '', ( #248 ) ) ;
#258 = CIRCLE ( 'NONE', #204, 2.000000000000002220 ) ;
#259 = VERTEX_POINT ( 'NONE', #72 ) ;
#260 = DIRECTION ( 'NONE',  ( 4.275831445896959482E-31, 1.000000000000000000, 1.224646799147353454E-16 ) ) ;
#261 = EDGE_CURVE ( 'NONE', #232, #57, #38, .T. ) ;
#262 = FACE_OUTER_BOUND ( 'NONE', #107, .T. ) ;
#263 = AXIS2_PLACEMENT_3D ( 'NONE', #144, #200, #186 ) ;
#264 = DIRECTION ( 'NONE',  ( 0.0000000000000000000, 1.000000000000000000, 0.0000000000000000000 ) ) ;
#265 = FACE_OUTER_BOUND ( 'NONE', #271, .T. ) ;
#266 = PERSON_AND_ORGANIZATION ( #226, #47 ) ;
#267 = VECTOR ( 'NONE', #58, 999.9999999999998863 ) ;
#268 = EDGE_CURVE ( 'NONE', #259, #42, #182, .T. ) ;
#269 = DATE_AND_TIME ( #163, #246 ) ;
#270 = DATE_TIME_ROLE ( 'classification_date' ) ;
#271 = EDGE_LOOP ( 'NONE', ( #10, #83, #137 ) ) ;
#272 = ORIENTED_EDGE ( 'NONE', *, *, #88, .F. ) ;
#273 = ADVANCED_FACE ( 'NONE', ( #159 ), #222, .T. ) ;
#274 = DIRECTION ( 'NONE',  ( -3.491481338843133355E-15, 1.224646799147353207E-16, -1.000000000000000000 ) ) ;
#275 = ORIENTED_EDGE ( 'NONE', *, *, #54, .T. ) ;
#276 = ADVANCED_FACE ( 'NONE', ( #18 ), #161, .F. ) ;
#277 = ORIENTED_EDGE ( 'NONE', *, *, #140, .F. ) ;
#278 = CARTESIAN_POINT ( 'NONE',  ( 8.728703347107905963E-15, -2.499999999999994671, 2.500000000000020872 ) ) ;
#279 = CARTESIAN_POINT ( 'NONE',  ( 1.745740669421566678E-13, -6.123233995736766085E-15, 50.00000000000000000 ) ) ;
#280 = DIRECTION ( 'NONE',  ( 3.491481338843133355E-15, -1.224646799147353207E-16, 1.000000000000000000 ) ) ;
#281 = UNCERTAINTY_MEASURE_WITH_UNIT (LENGTH_MEASURE( 1.000000000000000082E-05 ), #27, 'distance_accuracy_value', 'NONE');
#282 = DIRECTION ( 'NONE',  ( 2.555445736705827812E-15, 0.7071067811865435759, 0.7071067811865514585 ) ) ;
#283 = CONICAL_SURFACE ( 'NONE', #79, 2.499999999999994227, 0.7853981633974428389 ) ;
#284 = CALENDAR_DATE ( 2021, 21, 9 ) ;
#285 = COORDINATED_UNIVERSAL_TIME_OFFSET ( 1, 0, .AHEAD. ) ;
#286 = ADVANCED_FACE ( 'NONE', ( #125 ), #21, .T. ) ;
#287 = APPROVAL_DATE_TIME ( #269, #205 ) ;
ENDSEC;
END-ISO-10303-21;
