ISO-10303-21;
HEADER;
FILE_DESCRIPTION (( 'STEP AP203' ),
    '1' );
FILE_NAME ('47715.step',
    '2021-09-21T08:21:49',
    ( '' ),
    ( '' ),
    'SwSTEP 2.0',
    'SolidWorks 2019',
    '' );
FILE_SCHEMA (( 'CONFIG_CONTROL_DESIGN' ));
ENDSEC;

DATA;
#1 = ORIENTED_EDGE ( 'NONE', *, *, #67, .F. ) ;
#2 = PERSON_AND_ORGANIZATION ( #140, #153 ) ;
#3 = ORIENTED_EDGE ( 'NONE', *, *, #64, .T. ) ;
#4 = DATE_TIME_ROLE ( 'classification_date' ) ;
#5 = CARTESIAN_POINT ( 'NONE',  ( 8.728703347107907541E-15, -3.061616997868408779E-16, 2.500000000000021316 ) ) ;
#6 = PERSON_AND_ORGANIZATION ( #140, #153 ) ;
#7 = ADVANCED_FACE ( 'NONE', ( #89 ), #39, .T. ) ;
#8 = CYLINDRICAL_SURFACE ( 'NONE', #152, 2.499999999999996891 ) ;
#9 = DIRECTION ( 'NONE',  ( 1.000000000000000000, 0.0000000000000000000, 0.0000000000000000000 ) ) ;
#10 = ORIENTED_EDGE ( 'NONE', *, *, #126, .T. ) ;
#11 = CARTESIAN_POINT ( 'NONE',  ( 1.748067498339946923E-13, -1.900000000000006128, 50.00000000000000711 ) ) ;
#12 = CC_DESIGN_DATE_AND_TIME_ASSIGNMENT ( #205, #4, ( #218 ) ) ;
#13 = AXIS2_PLACEMENT_3D ( 'NONE', #62, #100, #63 ) ;
#14 = DIRECTION ( 'NONE',  ( -4.275831445896958607E-31, -1.000000000000000000, -1.224646799147353207E-16 ) ) ;
#15 = PLANE ( 'NONE',  #281 ) ;
#16 = DIRECTION ( 'NONE',  ( 6.162975822039168743E-31, 1.000000000000000000, 1.734723475976811039E-16 ) ) ;
#17 = CARTESIAN_POINT ( 'NONE',  ( 3.061616997868368843E-16, -2.499999999999996891, -3.061616997868389551E-16 ) ) ;
#18 = LOCAL_TIME ( 10, 21, 49.00000000000000000, #139 ) ;
#19 = ADVANCED_FACE ( 'NONE', ( #120 ), #33, .T. ) ;
#20 = APPROVAL_PERSON_ORGANIZATION ( #77, #254, #247 ) ;
#21 = ORIENTED_EDGE ( 'NONE', *, *, #206, .F. ) ;
#22 = COORDINATED_UNIVERSAL_TIME_OFFSET ( 1, 0, .AHEAD. ) ;
#23 = PRODUCT ( '47715', '47715', '', ( #188 ) ) ;
#24 = EDGE_LOOP ( 'NONE', ( #134, #52, #191 ) ) ;
#25 = PERSON_AND_ORGANIZATION_ROLE ( 'classification_officer' ) ;
#26 = CARTESIAN_POINT ( 'NONE',  ( 1.745740669421566930E-13, -6.123233995736766874E-15, 50.00000000000000711 ) ) ;
#27 = DIRECTION ( 'NONE',  ( -3.491481338843133355E-15, 1.224646799147353207E-16, -1.000000000000000000 ) ) ;
#28 = CALENDAR_DATE ( 2021, 21, 9 ) ;
#29 = VECTOR ( 'NONE', #213, 999.9999999999998863 ) ;
#30 = EDGE_LOOP ( 'NONE', ( #95, #187 ) ) ;
#31 = LINE ( 'NONE', #117, #242 ) ;
#32 = DIRECTION ( 'NONE',  ( -4.275831445896958607E-31, -1.000000000000000000, -1.224646799147353207E-16 ) ) ;
#33 = CONICAL_SURFACE ( 'NONE', #199, 2.499999999999994227, 0.7853981633974428389 ) ;
#34 = DIRECTION ( 'NONE',  ( -3.491481338843133355E-15, 1.224646799147353207E-16, -1.000000000000000000 ) ) ;
#35 = PLANE ( 'NONE',  #270 ) ;
#36 = APPLICATION_CONTEXT ( 'configuration controlled 3d designs of mechanical parts and assemblies' ) ;
#37 = DIRECTION ( 'NONE',  ( 6.162975822039168743E-31, 1.000000000000000000, 1.734723475976811039E-16 ) ) ;
#38 = LINE ( 'NONE', #11, #29 ) ;
#39 = CONICAL_SURFACE ( 'NONE', #162, 1.899999999999999911, 0.7853981633974399523 ) ;
#40 = EDGE_CURVE ( 'NONE', #182, #234, #203, .T. ) ;
#41 = UNCERTAINTY_MEASURE_WITH_UNIT (LENGTH_MEASURE( 1.000000000000000082E-05 ), #97, 'distance_accuracy_value', 'NONE');
#42 = VECTOR ( 'NONE', #195, 1000.000000000000000 ) ;
#43 = DIRECTION ( 'NONE',  ( -3.491481338843133355E-15, 1.224646799147353207E-16, -1.000000000000000000 ) ) ;
#44 = PERSON_AND_ORGANIZATION ( #140, #153 ) ;
#45 = APPROVAL_DATE_TIME ( #233, #254 ) ;
#46 = CC_DESIGN_SECURITY_CLASSIFICATION ( #218, ( #128 ) ) ;
#47 = ORIENTED_EDGE ( 'NONE', *, *, #84, .T. ) ;
#48 = CC_DESIGN_DATE_AND_TIME_ASSIGNMENT ( #112, #229, ( #155 ) ) ;
#49 = MANIFOLD_SOLID_BREP ( 'Corps-Déplacer/Copier1[1]', #127 ) ;
#50 = EDGE_LOOP ( 'NONE', ( #142, #76, #1, #65 ) ) ;
#51 = DATE_AND_TIME ( #201, #18 ) ;
#52 = ORIENTED_EDGE ( 'NONE', *, *, #104, .T. ) ;
#53 = APPROVAL_ROLE ( '' ) ;
#54 = LOCAL_TIME ( 10, 21, 49.00000000000000000, #22 ) ;
#55 = EDGE_CURVE ( 'NONE', #186, #232, #74, .T. ) ;
#56 = DIRECTION ( 'NONE',  ( 4.275831445896959482E-31, 1.000000000000000000, 1.224646799147353207E-16 ) ) ;
#57 = DIRECTION ( 'NONE',  ( -3.491481338843133355E-15, 1.224646799147353207E-16, -1.000000000000000000 ) ) ;
#58 = LINE ( 'NONE', #196, #42 ) ;
#59 = AXIS2_PLACEMENT_3D ( 'NONE', #263, #60, #123 ) ;
#60 = DIRECTION ( 'NONE',  ( -3.491481338843133355E-15, 1.224646799147353207E-16, -1.000000000000000000 ) ) ;
#61 = ADVANCED_FACE ( 'NONE', ( #136 ), #8, .T. ) ;
#62 = CARTESIAN_POINT ( 'NONE',  ( 1.724791781388508004E-13, -6.049755187787925154E-15, 49.39999999999999858 ) ) ;
#63 = DIRECTION ( 'NONE',  ( 0.0000000000000000000, 1.000000000000000000, 0.0000000000000000000 ) ) ;
#64 = EDGE_CURVE ( 'NONE', #98, #182, #31, .T. ) ;
#65 = ORIENTED_EDGE ( 'NONE', *, *, #244, .F. ) ;
#66 = CONICAL_SURFACE ( 'NONE', #248, 2.499999999999994227, 0.7853981633974428389 ) ;
#67 = EDGE_CURVE ( 'NONE', #186, #166, #179, .T. ) ;
#68 = DIRECTION ( 'NONE',  ( 0.0000000000000000000, 0.0000000000000000000, 1.000000000000000000 ) ) ;
#69 = ORIENTED_EDGE ( 'NONE', *, *, #104, .F. ) ;
#70 = CC_DESIGN_PERSON_AND_ORGANIZATION_ASSIGNMENT ( #44, #137, ( #155 ) ) ;
#71 = ORIENTED_EDGE ( 'NONE', *, *, #40, .T. ) ;
#72 = PERSON_AND_ORGANIZATION_ROLE ( 'design_owner' ) ;
#73 = PRODUCT_DEFINITION_SHAPE ( 'NONE', 'NONE',  #155 ) ;
#74 = LINE ( 'NONE', #251, #146 ) ;
#75 = APPROVAL_ROLE ( '' ) ;
#76 = ORIENTED_EDGE ( 'NONE', *, *, #206, .T. ) ;
#77 = PERSON_AND_ORGANIZATION ( #140, #153 ) ;
#78 = ADVANCED_FACE ( 'NONE', ( #190 ), #243, .T. ) ;
#79 = DIRECTION ( 'NONE',  ( -3.491481338843133355E-15, 1.224646799147353207E-16, -1.000000000000000000 ) ) ;
#80 = AXIS2_PLACEMENT_3D ( 'NONE', #5, #79, #271 ) ;
#81 = CARTESIAN_POINT ( 'NONE',  ( 1.745740669421566930E-13, -6.123233995736766874E-15, 50.00000000000000711 ) ) ;
#82 = PLANE ( 'NONE',  #237 ) ;
#83 = CARTESIAN_POINT ( 'NONE',  ( 8.728703347107907541E-15, -4.336808689942065068E-16, 2.500000000000021316 ) ) ;
#84 = EDGE_CURVE ( 'NONE', #166, #186, #259, .T. ) ;
#85 = CIRCLE ( 'NONE', #283, 2.499999999999994227 ) ;
#86 = CARTESIAN_POINT ( 'NONE',  ( 8.728703347107907541E-15, -3.061616997868408779E-16, 2.500000000000021316 ) ) ;
#87 = DIRECTION ( 'NONE',  ( 3.491481338843133355E-15, -1.224646799147353207E-16, 1.000000000000000000 ) ) ;
#88 = AXIS2_PLACEMENT_3D ( 'NONE', #279, #105, #236 ) ;
#89 = FACE_OUTER_BOUND ( 'NONE', #222, .T. ) ;
#90 = EDGE_LOOP ( 'NONE', ( #115, #161 ) ) ;
#91 = PERSON_AND_ORGANIZATION_ROLE ( 'creator' ) ;
#92 = APPROVAL_PERSON_ORGANIZATION ( #6, #109, #75 ) ;
#93 = EDGE_CURVE ( 'NONE', #234, #182, #260, .T. ) ;
#94 = CARTESIAN_POINT ( 'NONE',  ( 0.0000000000000000000, 0.0000000000000000000, 0.0000000000000000000 ) ) ;
#95 = ORIENTED_EDGE ( 'NONE', *, *, #158, .F. ) ;
#96 = CARTESIAN_POINT ( 'NONE',  ( 1.724791781388508004E-13, -6.049755187787925154E-15, 49.39999999999999858 ) ) ;
#97 =( LENGTH_UNIT ( ) NAMED_UNIT ( * ) SI_UNIT ( .MILLI., .METRE. ) );
#98 = VERTEX_POINT ( 'NONE', #261 ) ;
#99 = ADVANCED_FACE ( 'NONE', ( #256 ), #35, .F. ) ;
#100 = DIRECTION ( 'NONE',  ( -3.491481338843133355E-15, 1.224646799147353207E-16, -1.000000000000000000 ) ) ;
#101 = DATE_AND_TIME ( #28, #210 ) ;
#102 = LOCAL_TIME ( 10, 21, 49.00000000000000000, #250 ) ;
#103 = CARTESIAN_POINT ( 'NONE',  ( 1.745740669421566930E-13, 1.899999999999993916, 50.00000000000000711 ) ) ;
#104 = EDGE_CURVE ( 'NONE', #98, #234, #170, .T. ) ;
#105 = DIRECTION ( 'NONE',  ( -3.491481338843133355E-15, 1.224646799147353207E-16, -1.000000000000000000 ) ) ;
#106 = FACE_OUTER_BOUND ( 'NONE', #24, .T. ) ;
#107 = CC_DESIGN_APPROVAL ( #254, ( #155 ) ) ;
#108 = CARTESIAN_POINT ( 'NONE',  ( 8.728703347107907541E-15, -3.061616997868408779E-16, 2.500000000000021316 ) ) ;
#109 = APPROVAL ( #272, 'UNSPECIFIED' ) ;
#110 = ADVANCED_FACE ( 'NONE', ( #149 ), #82, .F. ) ;
#111 = ORIENTED_EDGE ( 'NONE', *, *, #219, .T. ) ;
#112 = DATE_AND_TIME ( #116, #54 ) ;
#113 = VECTOR ( 'NONE', #194, 1000.000000000000000 ) ;
#114 = CALENDAR_DATE ( 2021, 21, 9 ) ;
#115 = ORIENTED_EDGE ( 'NONE', *, *, #40, .F. ) ;
#116 = CALENDAR_DATE ( 2021, 21, 9 ) ;
#117 = CARTESIAN_POINT ( 'NONE',  ( 8.728703347107905963E-15, -2.499999999999994671, 2.500000000000020872 ) ) ;
#118 = AXIS2_PLACEMENT_3D ( 'NONE', #124, #57, #282 ) ;
#119 = CC_DESIGN_PERSON_AND_ORGANIZATION_ASSIGNMENT ( #227, #91, ( #128 ) ) ;
#120 = FACE_OUTER_BOUND ( 'NONE', #230, .T. ) ;
#121 = ORIENTED_EDGE ( 'NONE', *, *, #55, .T. ) ;
#122 = LINE ( 'NONE', #17, #113 ) ;
#123 = DIRECTION ( 'NONE',  ( 4.275831445896959482E-31, 1.000000000000000000, 1.224646799147353207E-16 ) ) ;
#124 = CARTESIAN_POINT ( 'NONE',  ( 1.745740669421566930E-13, -6.123233995736766874E-15, 50.00000000000000711 ) ) ;
#125 = DIRECTION ( 'NONE',  ( 6.162975822039168743E-31, 1.000000000000000000, 1.734723475976811039E-16 ) ) ;
#126 = EDGE_CURVE ( 'NONE', #228, #232, #85, .T. ) ;
#127 = CLOSED_SHELL ( 'NONE', ( #165, #78, #99, #61, #7, #110 ) ) ;
#128 = PRODUCT_DEFINITION_FORMATION_WITH_SPECIFIED_SOURCE ( 'ANY', '', #23, .NOT_KNOWN. ) ;
#129 = CARTESIAN_POINT ( 'NONE',  ( 1.745740669421566678E-13, -1.826024711554534249E-13, 50.00000000000000000 ) ) ;
#130 =( GEOMETRIC_REPRESENTATION_CONTEXT ( 3 ) GLOBAL_UNCERTAINTY_ASSIGNED_CONTEXT ( ( #41 ) ) GLOBAL_UNIT_ASSIGNED_CONTEXT ( ( #97, #224, #184 ) ) REPRESENTATION_CONTEXT ( 'NONE', 'WORKASPACE' ) );
#131 = ORIENTED_EDGE ( 'NONE', *, *, #84, .F. ) ;
#132 = DIRECTION ( 'NONE',  ( -6.162975822039168743E-31, -1.000000000000000000, -1.734723475976811039E-16 ) ) ;
#133 = APPROVAL_PERSON_ORGANIZATION ( #274, #215, #53 ) ;
#134 = ORIENTED_EDGE ( 'NONE', *, *, #64, .F. ) ;
#135 = CALENDAR_DATE ( 2021, 21, 9 ) ;
#136 = FACE_OUTER_BOUND ( 'NONE', #225, .T. ) ;
#137 = PERSON_AND_ORGANIZATION_ROLE ( 'creator' ) ;
#138 = ORIENTED_EDGE ( 'NONE', *, *, #177, .F. ) ;
#139 = COORDINATED_UNIVERSAL_TIME_OFFSET ( 1, 0, .AHEAD. ) ;
#140 = PERSON ( 'UNSPECIFIED', 'UNSPECIFIED', 'UNSPECIFIED', ('UNSPECIFIED'), ('UNSPECIFIED'), ('UNSPECIFIED') ) ;
#141 = AXIS2_PLACEMENT_3D ( 'NONE', #81, #276, #235 ) ;
#142 = ORIENTED_EDGE ( 'NONE', *, *, #158, .T. ) ;
#143 = FACE_OUTER_BOUND ( 'NONE', #50, .T. ) ;
#144 = DIRECTION ( 'NONE',  ( -3.491481338843133355E-15, 1.224646799147353207E-16, -1.000000000000000000 ) ) ;
#145 = SHAPE_DEFINITION_REPRESENTATION ( #73, #262 ) ;
#146 = VECTOR ( 'NONE', #168, 1000.000000000000000 ) ;
#147 = AXIS2_PLACEMENT_3D ( 'NONE', #217, #280, #16 ) ;
#148 = CARTESIAN_POINT ( 'NONE',  ( 8.728703347107907541E-15, -4.336808689942065068E-16, 2.500000000000021316 ) ) ;
#149 = FACE_OUTER_BOUND ( 'NONE', #30, .T. ) ;
#150 = CC_DESIGN_PERSON_AND_ORGANIZATION_ASSIGNMENT ( #2, #185, ( #128 ) ) ;
#151 = DIRECTION ( 'NONE',  ( 3.491481338843133355E-15, -1.224646799147353207E-16, 1.000000000000000000 ) ) ;
#152 = AXIS2_PLACEMENT_3D ( 'NONE', #255, #27, #56 ) ;
#153 = ORGANIZATION ( 'UNSPECIFIED', 'UNSPECIFIED', '' ) ;
#154 = MANIFOLD_SOLID_BREP ( 'Corps-Déplacer/Copier1[2]', #174 ) ;
#155 = PRODUCT_DEFINITION ( 'UNKNOWN', '', #128, #221 ) ;
#156 = DIRECTION ( 'NONE',  ( -3.491481338843133355E-15, 1.224646799147353207E-16, -1.000000000000000000 ) ) ;
#157 = CONICAL_SURFACE ( 'NONE', #141, 1.899999999999999911, 0.7853981633974399523 ) ;
#158 = EDGE_CURVE ( 'NONE', #160, #164, #245, .T. ) ;
#159 = SECURITY_CLASSIFICATION_LEVEL ( 'unclassified' ) ;
#160 = VERTEX_POINT ( 'NONE', #103 ) ;
#161 = ORIENTED_EDGE ( 'NONE', *, *, #93, .F. ) ;
#162 = AXIS2_PLACEMENT_3D ( 'NONE', #26, #43, #181 ) ;
#163 = CC_DESIGN_APPROVAL ( #109, ( #218 ) ) ;
#164 = VERTEX_POINT ( 'NONE', #216 ) ;
#165 = ADVANCED_FACE ( 'NONE', ( #143 ), #157, .T. ) ;
#166 = VERTEX_POINT ( 'NONE', #239 ) ;
#167 = APPROVAL_STATUS ( 'not_yet_approved' ) ;
#168 = DIRECTION ( 'NONE',  ( -3.491481338843133355E-15, 1.224646799147353207E-16, -1.000000000000000000 ) ) ;
#169 = ADVANCED_FACE ( 'NONE', ( #238 ), #15, .T. ) ;
#170 = LINE ( 'NONE', #171, #180 ) ;
#171 = CARTESIAN_POINT ( 'NONE',  ( 9.034865046894746989E-15, 2.499999999999993783, 2.500000000000021760 ) ) ;
#172 = CARTESIAN_POINT ( 'NONE',  ( 9.034865046894746989E-15, 2.499999999999993783, 2.500000000000021760 ) ) ;
#173 = APPROVAL_DATE_TIME ( #101, #109 ) ;
#174 = CLOSED_SHELL ( 'NONE', ( #277, #19, #169 ) ) ;
#175 = AXIS2_PLACEMENT_3D ( 'NONE', #94, #68, #9 ) ;
#176 = DIRECTION ( 'NONE',  ( 3.491481338843133355E-15, -1.224646799147353207E-16, 1.000000000000000000 ) ) ;
#177 = EDGE_CURVE ( 'NONE', #232, #228, #220, .T. ) ;
#178 = DIRECTION ( 'NONE',  ( -3.491481338843133355E-15, 1.224646799147353207E-16, -1.000000000000000000 ) ) ;
#179 = CIRCLE ( 'NONE', #264, 2.500000000000000000 ) ;
#180 = VECTOR ( 'NONE', #193, 1000.000000000000000 ) ;
#181 = DIRECTION ( 'NONE',  ( 0.0000000000000000000, 1.000000000000000000, 0.0000000000000000000 ) ) ;
#182 = VERTEX_POINT ( 'NONE', #240 ) ;
#183 = CC_DESIGN_APPROVAL ( #215, ( #128 ) ) ;
#184 =( NAMED_UNIT ( * ) SI_UNIT ( $, .STERADIAN. ) SOLID_ANGLE_UNIT ( ) );
#185 = PERSON_AND_ORGANIZATION_ROLE ( 'design_supplier' ) ;
#186 = VERTEX_POINT ( 'NONE', #214 ) ;
#187 = ORIENTED_EDGE ( 'NONE', *, *, #219, .F. ) ;
#188 = MECHANICAL_CONTEXT ( 'NONE', #36, 'mechanical' ) ;
#189 = LOCAL_TIME ( 10, 21, 49.00000000000000000, #208 ) ;
#190 = FACE_OUTER_BOUND ( 'NONE', #266, .T. ) ;
#191 = ORIENTED_EDGE ( 'NONE', *, *, #93, .T. ) ;
#192 = EDGE_CURVE ( 'NONE', #166, #228, #122, .T. ) ;
#193 = DIRECTION ( 'NONE',  ( 2.555445736705827812E-15, 0.7071067811865435759, 0.7071067811865514585 ) ) ;
#194 = DIRECTION ( 'NONE',  ( -3.491481338843133355E-15, 1.224646799147353207E-16, -1.000000000000000000 ) ) ;
#195 = DIRECTION ( 'NONE',  ( -2.468850131082285854E-15, 0.7071067811865416886, -0.7071067811865533459 ) ) ;
#196 = CARTESIAN_POINT ( 'NONE',  ( 1.745740669421566930E-13, 1.899999999999993916, 50.00000000000000711 ) ) ;
#197 = CIRCLE ( 'NONE', #88, 1.899999999999999911 ) ;
#198 = DIRECTION ( 'NONE',  ( 4.275831445896958607E-31, 1.000000000000000000, 1.224646799147353207E-16 ) ) ;
#199 = AXIS2_PLACEMENT_3D ( 'NONE', #207, #211, #275 ) ;
#200 = ORIENTED_EDGE ( 'NONE', *, *, #192, .F. ) ;
#201 = CALENDAR_DATE ( 2021, 21, 9 ) ;
#202 = CC_DESIGN_PERSON_AND_ORGANIZATION_ASSIGNMENT ( #268, #25, ( #218 ) ) ;
#203 = CIRCLE ( 'NONE', #80, 2.499999999999994227 ) ;
#204 = APPROVAL_DATE_TIME ( #51, #215 ) ;
#205 = DATE_AND_TIME ( #114, #189 ) ;
#206 = EDGE_CURVE ( 'NONE', #164, #166, #38, .T. ) ;
#207 = CARTESIAN_POINT ( 'NONE',  ( 8.728703347107907541E-15, -3.061616997868408779E-16, 2.500000000000021316 ) ) ;
#208 = COORDINATED_UNIVERSAL_TIME_OFFSET ( 1, 0, .AHEAD. ) ;
#209 = DIRECTION ( 'NONE',  ( 0.0000000000000000000, 1.000000000000000000, 0.0000000000000000000 ) ) ;
#210 = LOCAL_TIME ( 10, 21, 49.00000000000000000, #231 ) ;
#211 = DIRECTION ( 'NONE',  ( 3.491481338843133355E-15, -1.224646799147353207E-16, 1.000000000000000000 ) ) ;
#212 = EDGE_LOOP ( 'NONE', ( #267, #10 ) ) ;
#213 = DIRECTION ( 'NONE',  ( -2.382254525458738374E-15, -0.7071067811865414665, -0.7071067811865536790 ) ) ;
#214 = CARTESIAN_POINT ( 'NONE',  ( 1.724791781388508004E-13, 2.499999999999993783, 49.39999999999999858 ) ) ;
#215 = APPROVAL ( #253, 'UNSPECIFIED' ) ;
#216 = CARTESIAN_POINT ( 'NONE',  ( 1.737960448363161590E-13, -1.900000000000006128, 50.00000000000000711 ) ) ;
#217 = CARTESIAN_POINT ( 'NONE',  ( 8.728703347107907541E-15, -3.061616997868408779E-16, 2.500000000000021316 ) ) ;
#218 = SECURITY_CLASSIFICATION ( '', '', #159 ) ;
#219 = EDGE_CURVE ( 'NONE', #164, #160, #197, .T. ) ;
#220 = CIRCLE ( 'NONE', #147, 2.499999999999994227 ) ;
#221 = DESIGN_CONTEXT ( 'detailed design', #284, 'design' ) ;
#222 = EDGE_LOOP ( 'NONE', ( #21, #111, #249, #131 ) ) ;
#223 = ORIENTED_EDGE ( 'NONE', *, *, #67, .T. ) ;
#224 =( NAMED_UNIT ( * ) PLANE_ANGLE_UNIT ( ) SI_UNIT ( $, .RADIAN. ) );
#225 = EDGE_LOOP ( 'NONE', ( #200, #47, #121, #252 ) ) ;
#226 = AXIS2_PLACEMENT_3D ( 'NONE', #258, #144, #37 ) ;
#227 = PERSON_AND_ORGANIZATION ( #140, #153 ) ;
#228 = VERTEX_POINT ( 'NONE', #278 ) ;
#229 = DATE_TIME_ROLE ( 'creation_date' ) ;
#230 = EDGE_LOOP ( 'NONE', ( #69, #3, #71 ) ) ;
#231 = COORDINATED_UNIVERSAL_TIME_OFFSET ( 1, 0, .AHEAD. ) ;
#232 = VERTEX_POINT ( 'NONE', #257 ) ;
#233 = DATE_AND_TIME ( #135, #102 ) ;
#234 = VERTEX_POINT ( 'NONE', #172 ) ;
#235 = DIRECTION ( 'NONE',  ( 0.0000000000000000000, 1.000000000000000000, 0.0000000000000000000 ) ) ;
#236 = DIRECTION ( 'NONE',  ( 0.0000000000000000000, 1.000000000000000000, 0.0000000000000000000 ) ) ;
#237 = AXIS2_PLACEMENT_3D ( 'NONE', #129, #34, #198 ) ;
#238 = FACE_OUTER_BOUND ( 'NONE', #90, .T. ) ;
#239 = CARTESIAN_POINT ( 'NONE',  ( 9.091010244276601276E-14, -2.500000000000006217, 49.39999999999999858 ) ) ;
#240 = CARTESIAN_POINT ( 'NONE',  ( 8.728703347107905963E-15, -2.499999999999994671, 2.500000000000020872 ) ) ;
#241 = PRODUCT_RELATED_PRODUCT_CATEGORY ( 'detail', '', ( #23 ) ) ;
#242 = VECTOR ( 'NONE', #265, 999.9999999999998863 ) ;
#243 = CYLINDRICAL_SURFACE ( 'NONE', #59, 2.499999999999996891 ) ;
#244 = EDGE_CURVE ( 'NONE', #160, #186, #58, .T. ) ;
#245 = CIRCLE ( 'NONE', #118, 1.899999999999999911 ) ;
#246 = APPLICATION_PROTOCOL_DEFINITION ( 'international standard', 'config_control_design', 1994, #284 ) ;
#247 = APPROVAL_ROLE ( '' ) ;
#248 = AXIS2_PLACEMENT_3D ( 'NONE', #86, #176, #132 ) ;
#249 = ORIENTED_EDGE ( 'NONE', *, *, #244, .T. ) ;
#250 = COORDINATED_UNIVERSAL_TIME_OFFSET ( 1, 0, .AHEAD. ) ;
#251 = CARTESIAN_POINT ( 'NONE',  ( 1.068957861474238513E-30, 2.499999999999996891, 3.061616997868379197E-16 ) ) ;
#252 = ORIENTED_EDGE ( 'NONE', *, *, #126, .F. ) ;
#253 = APPROVAL_STATUS ( 'not_yet_approved' ) ;
#254 = APPROVAL ( #167, 'UNSPECIFIED' ) ;
#255 = CARTESIAN_POINT ( 'NONE',  ( 0.0000000000000000000, 0.0000000000000000000, 0.0000000000000000000 ) ) ;
#256 = FACE_OUTER_BOUND ( 'NONE', #212, .T. ) ;
#257 = CARTESIAN_POINT ( 'NONE',  ( 8.728703347107909119E-15, 2.499999999999993783, 2.500000000000021760 ) ) ;
#258 = CARTESIAN_POINT ( 'NONE',  ( 8.728703347107907541E-15, -3.061616997868408779E-16, 2.500000000000021316 ) ) ;
#259 = CIRCLE ( 'NONE', #13, 2.500000000000000000 ) ;
#260 = CIRCLE ( 'NONE', #226, 2.499999999999994227 ) ;
#261 = CARTESIAN_POINT ( 'NONE',  ( 0.0000000000000000000, 0.0000000000000000000, 0.0000000000000000000 ) ) ;
#262 = ADVANCED_BREP_SHAPE_REPRESENTATION ( '47715', ( #49, #154, #175 ), #130 ) ;
#263 = CARTESIAN_POINT ( 'NONE',  ( 0.0000000000000000000, 0.0000000000000000000, 0.0000000000000000000 ) ) ;
#264 = AXIS2_PLACEMENT_3D ( 'NONE', #96, #156, #209 ) ;
#265 = DIRECTION ( 'NONE',  ( 2.468850131082278754E-15, -0.7071067811865439090, 0.7071067811865512365 ) ) ;
#266 = EDGE_LOOP ( 'NONE', ( #223, #285, #138, #273 ) ) ;
#267 = ORIENTED_EDGE ( 'NONE', *, *, #177, .T. ) ;
#268 = PERSON_AND_ORGANIZATION ( #140, #153 ) ;
#269 = PERSON_AND_ORGANIZATION ( #140, #153 ) ;
#270 = AXIS2_PLACEMENT_3D ( 'NONE', #148, #87, #14 ) ;
#271 = DIRECTION ( 'NONE',  ( 6.162975822039168743E-31, 1.000000000000000000, 1.734723475976811039E-16 ) ) ;
#272 = APPROVAL_STATUS ( 'not_yet_approved' ) ;
#273 = ORIENTED_EDGE ( 'NONE', *, *, #55, .F. ) ;
#274 = PERSON_AND_ORGANIZATION ( #140, #153 ) ;
#275 = DIRECTION ( 'NONE',  ( -6.162975822039168743E-31, -1.000000000000000000, -1.734723475976811039E-16 ) ) ;
#276 = DIRECTION ( 'NONE',  ( -3.491481338843133355E-15, 1.224646799147353207E-16, -1.000000000000000000 ) ) ;
#277 = ADVANCED_FACE ( 'NONE', ( #106 ), #66, .T. ) ;
#278 = CARTESIAN_POINT ( 'NONE',  ( 9.091010244276615160E-14, -2.499999999999994671, 2.500000000000020872 ) ) ;
#279 = CARTESIAN_POINT ( 'NONE',  ( 1.745740669421566930E-13, -6.123233995736766874E-15, 50.00000000000000711 ) ) ;
#280 = DIRECTION ( 'NONE',  ( -3.491481338843133355E-15, 1.224646799147353207E-16, -1.000000000000000000 ) ) ;
#281 = AXIS2_PLACEMENT_3D ( 'NONE', #83, #151, #32 ) ;
#282 = DIRECTION ( 'NONE',  ( 0.0000000000000000000, 1.000000000000000000, 0.0000000000000000000 ) ) ;
#283 = AXIS2_PLACEMENT_3D ( 'NONE', #108, #178, #125 ) ;
#284 = APPLICATION_CONTEXT ( 'configuration controlled 3d designs of mechanical parts and assemblies' ) ;
#285 = ORIENTED_EDGE ( 'NONE', *, *, #192, .T. ) ;
#286 = APPLICATION_PROTOCOL_DEFINITION ( 'international standard', 'config_control_design', 1994, #36 ) ;
#287 = CC_DESIGN_PERSON_AND_ORGANIZATION_ASSIGNMENT ( #269, #72, ( #23 ) ) ;
ENDSEC;
END-ISO-10303-21;
