ISO-10303-21;
HEADER;
FILE_DESCRIPTION (( 'STEP AP203' ),
    '1' );
FILE_NAME ('47714.step',
    '2021-09-21T08:21:49',
    ( '' ),
    ( '' ),
    'SwSTEP 2.0',
    'SolidWorks 2019',
    '' );
FILE_SCHEMA (( 'CONFIG_CONTROL_DESIGN' ));
ENDSEC;

DATA;
#1 = APPROVAL_STATUS ( 'not_yet_approved' ) ;
#2 = CARTESIAN_POINT ( 'NONE',  ( 1.745740669421566425E-13, 1.599999999999994094, 49.99999999999999289 ) ) ;
#3 = ADVANCED_FACE ( 'NONE', ( #114 ), #100, .T. ) ;
#4 = PERSON_AND_ORGANIZATION ( #55, #281 ) ;
#5 = CARTESIAN_POINT ( 'NONE',  ( 1.745740669421566425E-13, -6.123233995736765296E-15, 49.99999999999999289 ) ) ;
#6 = VECTOR ( 'NONE', #8, 1000.000000000000000 ) ;
#7 = DIRECTION ( 'NONE',  ( 3.491481338843133355E-15, -1.224646799147353207E-16, 1.000000000000000000 ) ) ;
#8 = DIRECTION ( 'NONE',  ( -2.468850131082236550E-15, 0.7071067811865558994, -0.7071067811865392461 ) ) ;
#9 = CARTESIAN_POINT ( 'NONE',  ( 1.747700104300202036E-13, -1.600000000000006084, 49.99999999999999289 ) ) ;
#10 = EDGE_CURVE ( 'NONE', #218, #21, #34, .T. ) ;
#11 =( GEOMETRIC_REPRESENTATION_CONTEXT ( 3 ) GLOBAL_UNCERTAINTY_ASSIGNED_CONTEXT ( ( #133 ) ) GLOBAL_UNIT_ASSIGNED_CONTEXT ( ( #238, #175, #282 ) ) REPRESENTATION_CONTEXT ( 'NONE', 'WORKASPACE' ) );
#12 = CIRCLE ( 'NONE', #257, 1.999999999999994449 ) ;
#13 = DIRECTION ( 'NONE',  ( -4.275831445896958607E-31, -1.000000000000000000, -1.224646799147353207E-16 ) ) ;
#14 = DIRECTION ( 'NONE',  ( -3.491481338843133355E-15, 1.224646799147353207E-16, -1.000000000000000000 ) ) ;
#15 = ORIENTED_EDGE ( 'NONE', *, *, #161, .F. ) ;
#16 = CIRCLE ( 'NONE', #237, 1.999999999999994449 ) ;
#17 = CALENDAR_DATE ( 2021, 21, 9 ) ;
#18 = ORIENTED_EDGE ( 'NONE', *, *, #10, .T. ) ;
#19 = CARTESIAN_POINT ( 'NONE',  ( 1.740962070982345568E-13, -1.600000000000006084, 49.99999999999999289 ) ) ;
#21 = VERTEX_POINT ( 'NONE', #76 ) ;
#20 = DESIGN_CONTEXT ( 'detailed design', #222, 'design' ) ;
#22 = APPROVAL_STATUS ( 'not_yet_approved' ) ;
#23 = ORIENTED_EDGE ( 'NONE', *, *, #54, .T. ) ;
#24 = APPROVAL_ROLE ( '' ) ;
#25 = VERTEX_POINT ( 'NONE', #270 ) ;
#26 = EDGE_CURVE ( 'NONE', #116, #178, #12, .T. ) ;
#27 = CARTESIAN_POINT ( 'NONE',  ( 6.982962677686322720E-15, -1.999999999999994893, 2.000000000000015987 ) ) ;
#28 = PLANE ( 'NONE',  #139 ) ;
#29 = VECTOR ( 'NONE', #166, 999.9999999999998863 ) ;
#30 = LINE ( 'NONE', #122, #6 ) ;
#31 = EDGE_CURVE ( 'NONE', #284, #21, #210, .T. ) ;
#32 = CARTESIAN_POINT ( 'NONE',  ( 1.731774744066194397E-13, -6.074248123770872657E-15, 49.60000000000000853 ) ) ;
#33 = DIRECTION ( 'NONE',  ( 7.703719777548964432E-31, 1.000000000000000000, 2.168404344971014784E-16 ) ) ;
#34 = CIRCLE ( 'NONE', #87, 2.000000000000000000 ) ;
#35 = CC_DESIGN_SECURITY_CLASSIFICATION ( #88, ( #251 ) ) ;
#36 = AXIS2_PLACEMENT_3D ( 'NONE', #255, #123, #234 ) ;
#37 = DIRECTION ( 'NONE',  ( -3.491481338843133355E-15, 1.224646799147353207E-16, -1.000000000000000000 ) ) ;
#38 = DIRECTION ( 'NONE',  ( -7.703719777548964432E-31, -1.000000000000000000, -2.168404344971014784E-16 ) ) ;
#39 = DIRECTION ( 'NONE',  ( -3.491481338843133355E-15, 1.224646799147353207E-16, -1.000000000000000000 ) ) ;
#40 = ORIENTED_EDGE ( 'NONE', *, *, #31, .T. ) ;
#41 = CARTESIAN_POINT ( 'NONE',  ( 1.731774744066194397E-13, 1.999999999999994005, 49.60000000000000853 ) ) ;
#42 = ORIENTED_EDGE ( 'NONE', *, *, #54, .F. ) ;
#43 = DIRECTION ( 'NONE',  ( 0.0000000000000000000, 1.000000000000000000, 0.0000000000000000000 ) ) ;
#44 = PERSON_AND_ORGANIZATION ( #55, #281 ) ;
#45 = ADVANCED_FACE ( 'NONE', ( #256 ), #98, .T. ) ;
#46 = ORIENTED_EDGE ( 'NONE', *, *, #199, .F. ) ;
#47 = AXIS2_PLACEMENT_3D ( 'NONE', #153, #239, #38 ) ;
#48 = MANIFOLD_SOLID_BREP ( 'Corps-Déplacer/Copier1[1]', #220 ) ;
#49 = COORDINATED_UNIVERSAL_TIME_OFFSET ( 1, 0, .AHEAD. ) ;
#50 = LINE ( 'NONE', #124, #197 ) ;
#51 = DIRECTION ( 'NONE',  ( 0.0000000000000000000, 1.000000000000000000, 0.0000000000000000000 ) ) ;
#52 = CARTESIAN_POINT ( 'NONE',  ( 0.0000000000000000000, 0.0000000000000000000, 0.0000000000000000000 ) ) ;
#53 = CIRCLE ( 'NONE', #202, 1.999999999999994449 ) ;
#54 = EDGE_CURVE ( 'NONE', #25, #244, #67, .T. ) ;
#55 = PERSON ( 'UNSPECIFIED', 'UNSPECIFIED', 'UNSPECIFIED', ('UNSPECIFIED'), ('UNSPECIFIED'), ('UNSPECIFIED') ) ;
#56 = DIRECTION ( 'NONE',  ( -3.491481338843133355E-15, 1.224646799147353207E-16, -1.000000000000000000 ) ) ;
#57 = CARTESIAN_POINT ( 'NONE',  ( 7.227892037515793805E-15, 1.999999999999994005, 2.000000000000016875 ) ) ;
#58 = CC_DESIGN_PERSON_AND_ORGANIZATION_ASSIGNMENT ( #60, #158, ( #135 ) ) ;
#59 = APPLICATION_PROTOCOL_DEFINITION ( 'international standard', 'config_control_design', 1994, #222 ) ;
#60 = PERSON_AND_ORGANIZATION ( #55, #281 ) ;
#61 = AXIS2_PLACEMENT_3D ( 'NONE', #216, #105, #13 ) ;
#62 = ORIENTED_EDGE ( 'NONE', *, *, #259, .T. ) ;
#63 = LOCAL_TIME ( 10, 21, 49.00000000000000000, #221 ) ;
#64 = ORIENTED_EDGE ( 'NONE', *, *, #286, .F. ) ;
#65 = COORDINATED_UNIVERSAL_TIME_OFFSET ( 1, 0, .AHEAD. ) ;
#66 = ORIENTED_EDGE ( 'NONE', *, *, #161, .T. ) ;
#67 = LINE ( 'NONE', #57, #29 ) ;
#68 = PRODUCT_DEFINITION_SHAPE ( 'NONE', 'NONE',  #135 ) ;
#69 = CIRCLE ( 'NONE', #249, 1.600000000000000089 ) ;
#70 = AXIS2_PLACEMENT_3D ( 'NONE', #279, #260, #217 ) ;
#71 = DIRECTION ( 'NONE',  ( -3.491481338843133355E-15, 1.224646799147353207E-16, -1.000000000000000000 ) ) ;
#72 = DIRECTION ( 'NONE',  ( -3.491481338843133355E-15, 1.224646799147353207E-16, -1.000000000000000000 ) ) ;
#73 = APPROVAL ( #22, 'UNSPECIFIED' ) ;
#74 = CARTESIAN_POINT ( 'NONE',  ( 1.745740669421566425E-13, -6.123233995736765296E-15, 49.99999999999999289 ) ) ;
#75 = AXIS2_PLACEMENT_3D ( 'NONE', #102, #14, #109 ) ;
#76 = CARTESIAN_POINT ( 'NONE',  ( 9.032514790198213416E-14, -2.000000000000006217, 49.60000000000000853 ) ) ;
#77 = ADVANCED_FACE ( 'NONE', ( #146 ), #189, .F. ) ;
#78 = EDGE_CURVE ( 'NONE', #127, #244, #53, .T. ) ;
#79 = FACE_OUTER_BOUND ( 'NONE', #134, .T. ) ;
#80 = CARTESIAN_POINT ( 'NONE',  ( 2.449293598294694581E-16, -1.999999999999997335, -2.449293598294711345E-16 ) ) ;
#81 = AXIS2_PLACEMENT_3D ( 'NONE', #32, #71, #168 ) ;
#82 = ORIENTED_EDGE ( 'NONE', *, *, #199, .T. ) ;
#83 = CC_DESIGN_DATE_AND_TIME_ASSIGNMENT ( #142, #228, ( #88 ) ) ;
#84 = DATE_AND_TIME ( #17, #63 ) ;
#85 = EDGE_LOOP ( 'NONE', ( #269, #137 ) ) ;
#86 = CALENDAR_DATE ( 2021, 21, 9 ) ;
#87 = AXIS2_PLACEMENT_3D ( 'NONE', #93, #272, #276 ) ;
#88 = SECURITY_CLASSIFICATION ( '', '', #117 ) ;
#89 = ORIENTED_EDGE ( 'NONE', *, *, #31, .F. ) ;
#90 = SHAPE_DEFINITION_REPRESENTATION ( #68, #131 ) ;
#91 = CARTESIAN_POINT ( 'NONE',  ( 6.982962677686324297E-15, -2.449293598294726629E-16, 2.000000000000016431 ) ) ;
#92 = PERSON_AND_ORGANIZATION_ROLE ( 'classification_officer' ) ;
#93 = CARTESIAN_POINT ( 'NONE',  ( 1.731774744066194397E-13, -6.074248123770872657E-15, 49.60000000000000853 ) ) ;
#94 = AXIS2_PLACEMENT_3D ( 'NONE', #232, #72, #254 ) ;
#95 = APPROVAL_PERSON_ORGANIZATION ( #156, #204, #129 ) ;
#96 = DIRECTION ( 'NONE',  ( -4.275831445896958607E-31, -1.000000000000000000, -1.224646799147353207E-16 ) ) ;
#97 = FACE_OUTER_BOUND ( 'NONE', #242, .T. ) ;
#98 = CYLINDRICAL_SURFACE ( 'NONE', #176, 1.999999999999997335 ) ;
#99 = EDGE_CURVE ( 'NONE', #25, #127, #50, .T. ) ;
#100 = CONICAL_SURFACE ( 'NONE', #157, 1.600000000000000089, 0.7853981633974599363 ) ;
#101 = CC_DESIGN_PERSON_AND_ORGANIZATION_ASSIGNMENT ( #44, #92, ( #88 ) ) ;
#102 = CARTESIAN_POINT ( 'NONE',  ( 1.745740669421566425E-13, -6.123233995736765296E-15, 49.99999999999999289 ) ) ;
#103 = LINE ( 'NONE', #177, #206 ) ;
#104 = ADVANCED_FACE ( 'NONE', ( #148 ), #128, .T. ) ;
#105 = DIRECTION ( 'NONE',  ( 3.491481338843133355E-15, -1.224646799147353207E-16, 1.000000000000000000 ) ) ;
#106 = VECTOR ( 'NONE', #241, 1000.000000000000000 ) ;
#107 = CC_DESIGN_APPROVAL ( #73, ( #88 ) ) ;
#108 = ORIENTED_EDGE ( 'NONE', *, *, #99, .T. ) ;
#109 = DIRECTION ( 'NONE',  ( 0.0000000000000000000, 1.000000000000000000, 0.0000000000000000000 ) ) ;
#110 = EDGE_LOOP ( 'NONE', ( #224, #23, #262 ) ) ;
#111 = VERTEX_POINT ( 'NONE', #2 ) ;
#112 = DATE_AND_TIME ( #188, #184 ) ;
#113 = CIRCLE ( 'NONE', #275, 1.999999999999994449 ) ;
#114 = FACE_OUTER_BOUND ( 'NONE', #203, .T. ) ;
#115 = COORDINATED_UNIVERSAL_TIME_OFFSET ( 1, 0, .AHEAD. ) ;
#116 = VERTEX_POINT ( 'NONE', #229 ) ;
#117 = SECURITY_CLASSIFICATION_LEVEL ( 'unclassified' ) ;
#118 = DIRECTION ( 'NONE',  ( 4.275831445896959482E-31, 1.000000000000000000, 1.224646799147353454E-16 ) ) ;
#119 = PRODUCT_RELATED_PRODUCT_CATEGORY ( 'detail', '', ( #195 ) ) ;
#120 = CARTESIAN_POINT ( 'NONE',  ( 6.982962677686324297E-15, -1.301042606982619126E-15, 2.000000000000016431 ) ) ;
#121 = CLOSED_SHELL ( 'NONE', ( #104, #211, #173 ) ) ;
#122 = CARTESIAN_POINT ( 'NONE',  ( 1.745740669421566425E-13, 1.599999999999994094, 49.99999999999999289 ) ) ;
#123 = DIRECTION ( 'NONE',  ( -3.491481338843133355E-15, 1.224646799147353207E-16, -1.000000000000000000 ) ) ;
#124 = CARTESIAN_POINT ( 'NONE',  ( 6.982962677686322720E-15, -1.999999999999994893, 2.000000000000015987 ) ) ;
#125 = CC_DESIGN_DATE_AND_TIME_ASSIGNMENT ( #183, #248, ( #135 ) ) ;
#126 = LINE ( 'NONE', #80, #106 ) ;
#127 = VERTEX_POINT ( 'NONE', #27 ) ;
#128 = CONICAL_SURFACE ( 'NONE', #271, 1.999999999999994449, 0.7853981633974427279 ) ;
#129 = APPROVAL_ROLE ( '' ) ;
#130 = ORIENTED_EDGE ( 'NONE', *, *, #214, .T. ) ;
#131 = ADVANCED_BREP_SHAPE_REPRESENTATION ( '47714', ( #48, #240, #70 ), #11 ) ;
#132 = CARTESIAN_POINT ( 'NONE',  ( 7.227892037515793805E-15, 1.999999999999994005, 2.000000000000016875 ) ) ;
#134 = EDGE_LOOP ( 'NONE', ( #185, #163 ) ) ;
#133 = UNCERTAINTY_MEASURE_WITH_UNIT (LENGTH_MEASURE( 1.000000000000000082E-05 ), #238, 'distance_accuracy_value', 'NONE');
#135 = PRODUCT_DEFINITION ( 'UNKNOWN', '', #251, #20 ) ;
#136 = PERSON_AND_ORGANIZATION_ROLE ( 'creator' ) ;
#137 = ORIENTED_EDGE ( 'NONE', *, *, #152, .F. ) ;
#138 = PERSON_AND_ORGANIZATION ( #55, #281 ) ;
#139 = AXIS2_PLACEMENT_3D ( 'NONE', #120, #7, #96 ) ;
#140 = ORIENTED_EDGE ( 'NONE', *, *, #26, .F. ) ;
#141 = APPROVAL_PERSON_ORGANIZATION ( #138, #73, #24 ) ;
#142 = DATE_AND_TIME ( #190, #167 ) ;
#143 = DIRECTION ( 'NONE',  ( 2.468850131082278754E-15, -0.7071067811865436870, 0.7071067811865513475 ) ) ;
#144 = CC_DESIGN_PERSON_AND_ORGANIZATION_ASSIGNMENT ( #4, #250, ( #251 ) ) ;
#145 = DIRECTION ( 'NONE',  ( -3.491481338843133355E-15, 1.224646799147353207E-16, -1.000000000000000000 ) ) ;
#146 = FACE_OUTER_BOUND ( 'NONE', #85, .T. ) ;
#147 = APPROVAL_PERSON_ORGANIZATION ( #165, #219, #268 ) ;
#148 = FACE_OUTER_BOUND ( 'NONE', #110, .T. ) ;
#149 = EDGE_CURVE ( 'NONE', #178, #116, #16, .T. ) ;
#150 = DIRECTION ( 'NONE',  ( -2.382254525458686704E-15, -0.7071067811865555663, -0.7071067811865393571 ) ) ;
#151 = CIRCLE ( 'NONE', #81, 2.000000000000000000 ) ;
#152 = EDGE_CURVE ( 'NONE', #284, #111, #69, .T. ) ;
#153 = CARTESIAN_POINT ( 'NONE',  ( 6.982962677686324297E-15, -2.449293598294726629E-16, 2.000000000000016431 ) ) ;
#154 = FACE_OUTER_BOUND ( 'NONE', #266, .T. ) ;
#155 = EDGE_LOOP ( 'NONE', ( #42, #108, #182 ) ) ;
#156 = PERSON_AND_ORGANIZATION ( #55, #281 ) ;
#157 = AXIS2_PLACEMENT_3D ( 'NONE', #74, #194, #51 ) ;
#158 = PERSON_AND_ORGANIZATION_ROLE ( 'creator' ) ;
#159 = LOCAL_TIME ( 10, 21, 49.00000000000000000, #65 ) ;
#160 = ORIENTED_EDGE ( 'NONE', *, *, #10, .F. ) ;
#161 = EDGE_CURVE ( 'NONE', #21, #218, #151, .T. ) ;
#162 = PLANE ( 'NONE',  #61 ) ;
#163 = ORIENTED_EDGE ( 'NONE', *, *, #26, .T. ) ;
#164 = DATE_AND_TIME ( #225, #159 ) ;
#165 = PERSON_AND_ORGANIZATION ( #55, #281 ) ;
#166 = DIRECTION ( 'NONE',  ( 2.555445736705828601E-15, 0.7071067811865435759, 0.7071067811865515695 ) ) ;
#167 = LOCAL_TIME ( 10, 21, 49.00000000000000000, #49 ) ;
#168 = DIRECTION ( 'NONE',  ( 0.0000000000000000000, 1.000000000000000000, 0.0000000000000000000 ) ) ;
#169 = CARTESIAN_POINT ( 'NONE',  ( 6.982962677686324297E-15, -2.449293598294726629E-16, 2.000000000000016431 ) ) ;
#170 = DIRECTION ( 'NONE',  ( -3.491481338843133355E-15, 1.224646799147353207E-16, -1.000000000000000000 ) ) ;
#171 = CONICAL_SURFACE ( 'NONE', #75, 1.600000000000000089, 0.7853981633974599363 ) ;
#172 = CARTESIAN_POINT ( 'NONE',  ( 6.982962677686324297E-15, -2.449293598294726629E-16, 2.000000000000016431 ) ) ;
#173 = ADVANCED_FACE ( 'NONE', ( #230 ), #28, .T. ) ;
#174 = CIRCLE ( 'NONE', #215, 1.600000000000000089 ) ;
#175 =( NAMED_UNIT ( * ) PLANE_ANGLE_UNIT ( ) SI_UNIT ( $, .RADIAN. ) );
#176 = AXIS2_PLACEMENT_3D ( 'NONE', #52, #213, #118 ) ;
#177 = CARTESIAN_POINT ( 'NONE',  ( 8.551662891793906703E-31, 1.999999999999997335, 2.449293598294703456E-16 ) ) ;
#178 = VERTEX_POINT ( 'NONE', #273 ) ;
#179 = APPLICATION_PROTOCOL_DEFINITION ( 'international standard', 'config_control_design', 1994, #201 ) ;
#180 = APPROVAL_DATE_TIME ( #84, #204 ) ;
#181 = ADVANCED_FACE ( 'NONE', ( #97 ), #212, .T. ) ;
#182 = ORIENTED_EDGE ( 'NONE', *, *, #78, .T. ) ;
#183 = DATE_AND_TIME ( #86, #278 ) ;
#184 = LOCAL_TIME ( 10, 21, 49.00000000000000000, #115 ) ;
#185 = ORIENTED_EDGE ( 'NONE', *, *, #149, .T. ) ;
#186 = APPROVAL_DATE_TIME ( #164, #219 ) ;
#187 = ORIENTED_EDGE ( 'NONE', *, *, #214, .F. ) ;
#188 = CALENDAR_DATE ( 2021, 21, 9 ) ;
#189 = PLANE ( 'NONE',  #36 ) ;
#190 = CALENDAR_DATE ( 2021, 21, 9 ) ;
#191 = DIRECTION ( 'NONE',  ( 0.0000000000000000000, 1.000000000000000000, 0.0000000000000000000 ) ) ;
#192 = DIRECTION ( 'NONE',  ( 7.703719777548964432E-31, 1.000000000000000000, 2.168404344971014784E-16 ) ) ;
#193 = FACE_OUTER_BOUND ( 'NONE', #155, .T. ) ;
#194 = DIRECTION ( 'NONE',  ( -3.491481338843133355E-15, 1.224646799147353207E-16, -1.000000000000000000 ) ) ;
#195 = PRODUCT ( '47714', '47714', '', ( #198 ) ) ;
#196 = CC_DESIGN_PERSON_AND_ORGANIZATION_ASSIGNMENT ( #283, #263, ( #195 ) ) ;
#197 = VECTOR ( 'NONE', #143, 1000.000000000000000 ) ;
#198 = MECHANICAL_CONTEXT ( 'NONE', #201, 'mechanical' ) ;
#199 = EDGE_CURVE ( 'NONE', #111, #218, #30, .T. ) ;
#200 = CARTESIAN_POINT ( 'NONE',  ( 6.982962677686324297E-15, -2.449293598294726629E-16, 2.000000000000016431 ) ) ;
#201 = APPLICATION_CONTEXT ( 'configuration controlled 3d designs of mechanical parts and assemblies' ) ;
#202 = AXIS2_PLACEMENT_3D ( 'NONE', #252, #56, #33 ) ;
#203 = EDGE_LOOP ( 'NONE', ( #89, #208, #82, #15 ) ) ;
#204 = APPROVAL ( #285, 'UNSPECIFIED' ) ;
#205 = ORIENTED_EDGE ( 'NONE', *, *, #78, .F. ) ;
#206 = VECTOR ( 'NONE', #37, 1000.000000000000000 ) ;
#207 = APPROVAL_DATE_TIME ( #112, #73 ) ;
#208 = ORIENTED_EDGE ( 'NONE', *, *, #152, .T. ) ;
#209 = DIRECTION ( 'NONE',  ( 7.703719777548964432E-31, 1.000000000000000000, 2.168404344971014784E-16 ) ) ;
#210 = LINE ( 'NONE', #9, #258 ) ;
#211 = ADVANCED_FACE ( 'NONE', ( #193 ), #277, .T. ) ;
#212 = CYLINDRICAL_SURFACE ( 'NONE', #94, 1.999999999999997335 ) ;
#213 = DIRECTION ( 'NONE',  ( -3.491481338843133355E-15, 1.224646799147353207E-16, -1.000000000000000000 ) ) ;
#214 = EDGE_CURVE ( 'NONE', #21, #116, #126, .T. ) ;
#215 = AXIS2_PLACEMENT_3D ( 'NONE', #243, #223, #43 ) ;
#216 = CARTESIAN_POINT ( 'NONE',  ( 6.982962677686324297E-15, -1.301042606982619126E-15, 2.000000000000016431 ) ) ;
#217 = DIRECTION ( 'NONE',  ( 1.000000000000000000, 0.0000000000000000000, 0.0000000000000000000 ) ) ;
#218 = VERTEX_POINT ( 'NONE', #41 ) ;
#219 = APPROVAL ( #1, 'UNSPECIFIED' ) ;
#220 = CLOSED_SHELL ( 'NONE', ( #261, #181, #235, #45, #3, #77 ) ) ;
#221 = COORDINATED_UNIVERSAL_TIME_OFFSET ( 1, 0, .AHEAD. ) ;
#222 = APPLICATION_CONTEXT ( 'configuration controlled 3d designs of mechanical parts and assemblies' ) ;
#223 = DIRECTION ( 'NONE',  ( -3.491481338843133355E-15, 1.224646799147353207E-16, -1.000000000000000000 ) ) ;
#224 = ORIENTED_EDGE ( 'NONE', *, *, #99, .F. ) ;
#225 = CALENDAR_DATE ( 2021, 21, 9 ) ;
#226 = ORIENTED_EDGE ( 'NONE', *, *, #149, .F. ) ;
#227 = PERSON_AND_ORGANIZATION ( #55, #281 ) ;
#228 = DATE_TIME_ROLE ( 'classification_date' ) ;
#229 = CARTESIAN_POINT ( 'NONE',  ( 9.032514790198228562E-14, -1.999999999999994893, 2.000000000000015987 ) ) ;
#230 = FACE_OUTER_BOUND ( 'NONE', #287, .T. ) ;
#231 = CC_DESIGN_APPROVAL ( #204, ( #135 ) ) ;
#232 = CARTESIAN_POINT ( 'NONE',  ( 0.0000000000000000000, 0.0000000000000000000, 0.0000000000000000000 ) ) ;
#233 = DIRECTION ( 'NONE',  ( 3.491481338843133355E-15, -1.224646799147353207E-16, 1.000000000000000000 ) ) ;
#234 = DIRECTION ( 'NONE',  ( 4.275831445896958607E-31, 1.000000000000000000, 1.224646799147353207E-16 ) ) ;
#235 = ADVANCED_FACE ( 'NONE', ( #79 ), #162, .F. ) ;
#236 = CC_DESIGN_APPROVAL ( #219, ( #251 ) ) ;
#237 = AXIS2_PLACEMENT_3D ( 'NONE', #91, #145, #209 ) ;
#238 =( LENGTH_UNIT ( ) NAMED_UNIT ( * ) SI_UNIT ( .MILLI., .METRE. ) );
#239 = DIRECTION ( 'NONE',  ( 3.491481338843133355E-15, -1.224646799147353207E-16, 1.000000000000000000 ) ) ;
#240 = MANIFOLD_SOLID_BREP ( 'Corps-Déplacer/Copier1[2]', #121 ) ;
#241 = DIRECTION ( 'NONE',  ( -3.491481338843133355E-15, 1.224646799147353207E-16, -1.000000000000000000 ) ) ;
#242 = EDGE_LOOP ( 'NONE', ( #18, #130, #226, #246 ) ) ;
#243 = CARTESIAN_POINT ( 'NONE',  ( 1.745740669421566425E-13, -6.123233995736765296E-15, 49.99999999999999289 ) ) ;
#244 = VERTEX_POINT ( 'NONE', #132 ) ;
#245 = COORDINATED_UNIVERSAL_TIME_OFFSET ( 1, 0, .AHEAD. ) ;
#246 = ORIENTED_EDGE ( 'NONE', *, *, #280, .F. ) ;
#247 = ORIENTED_EDGE ( 'NONE', *, *, #280, .T. ) ;
#248 = DATE_TIME_ROLE ( 'creation_date' ) ;
#249 = AXIS2_PLACEMENT_3D ( 'NONE', #5, #274, #191 ) ;
#250 = PERSON_AND_ORGANIZATION_ROLE ( 'design_supplier' ) ;
#251 = PRODUCT_DEFINITION_FORMATION_WITH_SPECIFIED_SOURCE ( 'ANY', '', #195, .NOT_KNOWN. ) ;
#252 = CARTESIAN_POINT ( 'NONE',  ( 6.982962677686324297E-15, -2.449293598294726629E-16, 2.000000000000016431 ) ) ;
#253 = DIRECTION ( 'NONE',  ( -7.703719777548964432E-31, -1.000000000000000000, -2.168404344971014784E-16 ) ) ;
#254 = DIRECTION ( 'NONE',  ( 4.275831445896959482E-31, 1.000000000000000000, 1.224646799147353454E-16 ) ) ;
#255 = CARTESIAN_POINT ( 'NONE',  ( 1.745740669421566678E-13, 2.168404344971008868E-13, 50.00000000000000000 ) ) ;
#256 = FACE_OUTER_BOUND ( 'NONE', #264, .T. ) ;
#257 = AXIS2_PLACEMENT_3D ( 'NONE', #172, #170, #192 ) ;
#258 = VECTOR ( 'NONE', #150, 1000.000000000000114 ) ;
#259 = EDGE_CURVE ( 'NONE', #111, #284, #174, .T. ) ;
#260 = DIRECTION ( 'NONE',  ( 0.0000000000000000000, 0.0000000000000000000, 1.000000000000000000 ) ) ;
#261 = ADVANCED_FACE ( 'NONE', ( #154 ), #171, .T. ) ;
#262 = ORIENTED_EDGE ( 'NONE', *, *, #286, .T. ) ;
#263 = PERSON_AND_ORGANIZATION_ROLE ( 'design_owner' ) ;
#264 = EDGE_LOOP ( 'NONE', ( #187, #66, #247, #140 ) ) ;
#265 = DIRECTION ( 'NONE',  ( 7.703719777548964432E-31, 1.000000000000000000, 2.168404344971014784E-16 ) ) ;
#266 = EDGE_LOOP ( 'NONE', ( #62, #40, #160, #46 ) ) ;
#267 = CC_DESIGN_PERSON_AND_ORGANIZATION_ASSIGNMENT ( #227, #136, ( #251 ) ) ;
#268 = APPROVAL_ROLE ( '' ) ;
#269 = ORIENTED_EDGE ( 'NONE', *, *, #259, .F. ) ;
#270 = CARTESIAN_POINT ( 'NONE',  ( 0.0000000000000000000, 0.0000000000000000000, 0.0000000000000000000 ) ) ;
#271 = AXIS2_PLACEMENT_3D ( 'NONE', #169, #233, #253 ) ;
#272 = DIRECTION ( 'NONE',  ( -3.491481338843133355E-15, 1.224646799147353207E-16, -1.000000000000000000 ) ) ;
#273 = CARTESIAN_POINT ( 'NONE',  ( 6.982962677686325875E-15, 1.999999999999994005, 2.000000000000016875 ) ) ;
#274 = DIRECTION ( 'NONE',  ( -3.491481338843133355E-15, 1.224646799147353207E-16, -1.000000000000000000 ) ) ;
#275 = AXIS2_PLACEMENT_3D ( 'NONE', #200, #39, #265 ) ;
#276 = DIRECTION ( 'NONE',  ( 0.0000000000000000000, 1.000000000000000000, 0.0000000000000000000 ) ) ;
#277 = CONICAL_SURFACE ( 'NONE', #47, 1.999999999999994449, 0.7853981633974427279 ) ;
#278 = LOCAL_TIME ( 10, 21, 49.00000000000000000, #245 ) ;
#279 = CARTESIAN_POINT ( 'NONE',  ( 0.0000000000000000000, 0.0000000000000000000, 0.0000000000000000000 ) ) ;
#280 = EDGE_CURVE ( 'NONE', #218, #178, #103, .T. ) ;
#281 = ORGANIZATION ( 'UNSPECIFIED', 'UNSPECIFIED', '' ) ;
#282 =( NAMED_UNIT ( * ) SI_UNIT ( $, .STERADIAN. ) SOLID_ANGLE_UNIT ( ) );
#283 = PERSON_AND_ORGANIZATION ( #55, #281 ) ;
#284 = VERTEX_POINT ( 'NONE', #19 ) ;
#285 = APPROVAL_STATUS ( 'not_yet_approved' ) ;
#286 = EDGE_CURVE ( 'NONE', #244, #127, #113, .T. ) ;
#287 = EDGE_LOOP ( 'NONE', ( #205, #64 ) ) ;
ENDSEC;
END-ISO-10303-21;
