ISO-10303-21;
HEADER;
FILE_DESCRIPTION (( 'STEP AP203' ),
    '1' );
FILE_NAME ('47360.step',
    '2021-11-12T06:57:08',
    ( '' ),
    ( '' ),
    'SwSTEP 2.0',
    'SolidWorks 2019',
    '' );
FILE_SCHEMA (( 'CONFIG_CONTROL_DESIGN' ));
ENDSEC;

DATA;
#1 = ORIENTED_EDGE ( 'NONE', *, *, #64, .F. ) ;
#2 = AXIS2_PLACEMENT_3D ( 'NONE', #14, #53, #68 ) ;
#3 = CC_DESIGN_PERSON_AND_ORGANIZATION_ASSIGNMENT ( #16, #166, ( #61 ) ) ;
#4 = ORIENTED_EDGE ( 'NONE', *, *, #219, .F. ) ;
#5 = FACE_OUTER_BOUND ( 'NONE', #136, .T. ) ;
#6 = CARTESIAN_POINT ( 'NONE',  ( 1.149999999999999689, 0.0000000000000000000, -4.028756066825671375E-15 ) ) ;
#7 = CARTESIAN_POINT ( 'NONE',  ( 1.250000000000000444, 0.0000000000000000000, 0.09999999999999563405 ) ) ;
#8 = CARTESIAN_POINT ( 'NONE',  ( 1.745740669421566362E-14, -6.116987915908739766E-16, 4.999999999999999112 ) ) ;
#9 = AXIS2_PLACEMENT_3D ( 'NONE', #173, #104, #159 ) ;
#10 = PERSON_AND_ORGANIZATION ( #234, #144 ) ;
#11 = CC_DESIGN_PERSON_AND_ORGANIZATION_ASSIGNMENT ( #67, #37, ( #56 ) ) ;
#12 = APPROVAL_STATUS ( 'not_yet_approved' ) ;
#13 = EDGE_LOOP ( 'NONE', ( #35 ) ) ;
#14 = CARTESIAN_POINT ( 'NONE',  ( 0.0000000000000000000, 0.0000000000000000000, 0.0000000000000000000 ) ) ;
#15 = CARTESIAN_POINT ( 'NONE',  ( 1.745740669421566678E-13, 1.199807826129474181E-32, 50.00000000000000000 ) ) ;
#16 = PERSON_AND_ORGANIZATION ( #234, #144 ) ;
#17 = DIRECTION ( 'NONE',  ( 0.0000000000000000000, 1.000000000000000000, 0.0000000000000000000 ) ) ;
#18 = PLANE ( 'NONE',  #150 ) ;
#19 = EDGE_CURVE ( 'NONE', #176, #176, #20, .T. ) ;
#20 = CIRCLE ( 'NONE', #184, 1.999999999999994005 ) ;
#21 = EDGE_LOOP ( 'NONE', ( #4 ) ) ;
#22 = CIRCLE ( 'NONE', #106, 1.250000000000000000 ) ;
#23 = MANIFOLD_SOLID_BREP ( 'Corps-Déplacer/Copier1[1]', #118 ) ;
#24 = CARTESIAN_POINT ( 'NONE',  ( 1.731774744066194397E-13, 1.999999999999988010, 49.60000000000000853 ) ) ;
#25 = DIRECTION ( 'NONE',  ( -4.333047325933290895E-31, -1.000000000000000000, -1.223397583181748052E-16 ) ) ;
#26 = LOCAL_TIME ( 7, 57, 8.000000000000000000, #241 ) ;
#27 =( NAMED_UNIT ( * ) SI_UNIT ( $, .STERADIAN. ) SOLID_ANGLE_UNIT ( ) );
#28 = PLANE ( 'NONE',  #203 ) ;
#29 = ADVANCED_FACE ( 'NONE', ( #163 ), #41, .F. ) ;
#30 = COORDINATED_UNIVERSAL_TIME_OFFSET ( 1, 0, .AHEAD. ) ;
#31 = AXIS2_PLACEMENT_3D ( 'NONE', #192, #185, #91 ) ;
#32 = PERSON_AND_ORGANIZATION_ROLE ( 'design_supplier' ) ;
#33 = APPROVAL_ROLE ( '' ) ;
#34 = PERSON_AND_ORGANIZATION_ROLE ( 'design_owner' ) ;
#35 = ORIENTED_EDGE ( 'NONE', *, *, #219, .T. ) ;
#36 = LOCAL_TIME ( 7, 57, 8.000000000000000000, #215 ) ;
#37 = PERSON_AND_ORGANIZATION_ROLE ( 'creator' ) ;
#38 = ORIENTED_EDGE ( 'NONE', *, *, #19, .F. ) ;
#39 = EDGE_LOOP ( 'NONE', ( #59 ) ) ;
#40 = APPROVAL ( #105, 'UNSPECIFIED' ) ;
#41 = PLANE ( 'NONE',  #96 ) ;
#42 = ORIENTED_EDGE ( 'NONE', *, *, #198, .T. ) ;
#43 = AXIS2_PLACEMENT_3D ( 'NONE', #197, #102, #103 ) ;
#44 = FACE_OUTER_BOUND ( 'NONE', #200, .T. ) ;
#45 = DIRECTION ( 'NONE',  ( 1.000000000000000000, 0.0000000000000000000, -3.491481338843133750E-15 ) ) ;
#46 = CARTESIAN_POINT ( 'NONE',  ( -4.275831445896957731E-31, 1.499759782661857608E-32, -1.224646799147353207E-16 ) ) ;
#47 = CARTESIAN_POINT ( 'NONE',  ( 1.745740669421566362E-14, -1.250000000000000666, 4.999999999999999112 ) ) ;
#48 = ADVANCED_FACE ( 'NONE', ( #207, #112 ), #243, .T. ) ;
#49 = CARTESIAN_POINT ( 'NONE',  ( 2.926537771733875278E-14, 1.999999999999996669, 8.381937314617163182 ) ) ;
#50 = DATE_AND_TIME ( #92, #152 ) ;
#51 = PERSON_AND_ORGANIZATION ( #234, #144 ) ;
#52 = CARTESIAN_POINT ( 'NONE',  ( 3.491481338843133355E-16, 0.0000000000000000000, 0.1000000000000000056 ) ) ;
#53 = DIRECTION ( 'NONE',  ( 0.0000000000000000000, 0.0000000000000000000, 1.000000000000000000 ) ) ;
#54 = EDGE_LOOP ( 'NONE', ( #38 ) ) ;
#55 = PRODUCT_DEFINITION_SHAPE ( 'NONE', 'NONE',  #56 ) ;
#56 = PRODUCT_DEFINITION ( 'UNKNOWN', '', #61, #205 ) ;
#57 = EDGE_LOOP ( 'NONE', ( #1 ) ) ;
#58 = ORIENTED_EDGE ( 'NONE', *, *, #225, .T. ) ;
#59 = ORIENTED_EDGE ( 'NONE', *, *, #135, .T. ) ;
#60 = DIRECTION ( 'NONE',  ( 0.0000000000000000000, -1.000000000000000000, 0.0000000000000000000 ) ) ;
#61 = PRODUCT_DEFINITION_FORMATION_WITH_SPECIFIED_SOURCE ( 'ANY', '', #238, .NOT_KNOWN. ) ;
#62 = DIRECTION ( 'NONE',  ( 3.491481338843133355E-15, -0.0000000000000000000, 1.000000000000000000 ) ) ;
#63 = DIRECTION ( 'NONE',  ( 0.0000000000000000000, -1.000000000000000000, 0.0000000000000000000 ) ) ;
#64 = EDGE_CURVE ( 'NONE', #84, #84, #222, .T. ) ;
#65 = AXIS2_PLACEMENT_3D ( 'NONE', #116, #88, #17 ) ;
#66 = CARTESIAN_POINT ( 'NONE',  ( 1.745740669421566678E-14, 1.499759782661856787E-32, 5.000000000000000000 ) ) ;
#67 = PERSON_AND_ORGANIZATION ( #234, #144 ) ;
#68 = DIRECTION ( 'NONE',  ( 1.000000000000000000, 0.0000000000000000000, 0.0000000000000000000 ) ) ;
#69 = FACE_OUTER_BOUND ( 'NONE', #57, .T. ) ;
#70 = CARTESIAN_POINT ( 'NONE',  ( 0.0000000000000000000, 0.0000000000000000000, 0.0000000000000000000 ) ) ;
#71 = SECURITY_CLASSIFICATION_LEVEL ( 'unclassified' ) ;
#72 = ADVANCED_FACE ( 'NONE', ( #98, #155 ), #115, .T. ) ;
#73 = AXIS2_PLACEMENT_3D ( 'NONE', #117, #231, #60 ) ;
#74 = CIRCLE ( 'NONE', #9, 1.599999999999996314 ) ;
#75 = EDGE_LOOP ( 'NONE', ( #42 ) ) ;
#76 = EDGE_LOOP ( 'NONE', ( #145 ) ) ;
#77 = DIRECTION ( 'NONE',  ( 3.491481338843133355E-15, -1.223397583181748052E-16, 1.000000000000000000 ) ) ;
#78 = VERTEX_POINT ( 'NONE', #49 ) ;
#79 = CC_DESIGN_APPROVAL ( #167, ( #61 ) ) ;
#80 = DIRECTION ( 'NONE',  ( 3.491481338843133355E-15, -1.224646799147353207E-16, 1.000000000000000000 ) ) ;
#81 = CC_DESIGN_DATE_AND_TIME_ASSIGNMENT ( #122, #221, ( #199 ) ) ;
#82 = CARTESIAN_POINT ( 'NONE',  ( 1.745740669421566362E-14, 0.0000000000000000000, 4.999999999999999112 ) ) ;
#83 = PRODUCT_RELATED_PRODUCT_CATEGORY ( 'detail', '', ( #238 ) ) ;
#84 = VERTEX_POINT ( 'NONE', #7 ) ;
#85 = PERSON_AND_ORGANIZATION_ROLE ( 'classification_officer' ) ;
#86 = APPROVAL_ROLE ( '' ) ;
#87 = APPLICATION_PROTOCOL_DEFINITION ( 'international standard', 'config_control_design', 1994, #146 ) ;
#88 = DIRECTION ( 'NONE',  ( -3.491481338843133355E-15, 1.224646799147353207E-16, -1.000000000000000000 ) ) ;
#89 = AXIS2_PLACEMENT_3D ( 'NONE', #178, #229, #175 ) ;
#90 = MECHANICAL_CONTEXT ( 'NONE', #188, 'mechanical' ) ;
#91 = DIRECTION ( 'NONE',  ( 0.0000000000000000000, 1.000000000000000000, 0.0000000000000000000 ) ) ;
#92 = CALENDAR_DATE ( 2021, 12, 11 ) ;
#93 = CC_DESIGN_DATE_AND_TIME_ASSIGNMENT ( #50, #239, ( #56 ) ) ;
#94 = LOCAL_TIME ( 7, 57, 8.000000000000000000, #30 ) ;
#95 = EDGE_LOOP ( 'NONE', ( #220 ) ) ;
#96 = AXIS2_PLACEMENT_3D ( 'NONE', #15, #169, #170 ) ;
#97 = AXIS2_PLACEMENT_3D ( 'NONE', #226, #62, #45 ) ;
#98 = FACE_BOUND ( 'NONE', #217, .T. ) ;
#99 = CC_DESIGN_PERSON_AND_ORGANIZATION_ASSIGNMENT ( #162, #34, ( #238 ) ) ;
#100 = FACE_OUTER_BOUND ( 'NONE', #21, .T. ) ;
#101 = VERTEX_POINT ( 'NONE', #140 ) ;
#102 = DIRECTION ( 'NONE',  ( 3.491481338843133355E-15, -1.224646799147353207E-16, 1.000000000000000000 ) ) ;
#103 = DIRECTION ( 'NONE',  ( -4.275831445896958607E-31, -1.000000000000000000, -1.224646799147353207E-16 ) ) ;
#104 = DIRECTION ( 'NONE',  ( -3.491481338843133355E-15, 1.224646799147353207E-16, -1.000000000000000000 ) ) ;
#105 = APPROVAL_STATUS ( 'not_yet_approved' ) ;
#106 = AXIS2_PLACEMENT_3D ( 'NONE', #8, #77, #63 ) ;
#107 = DIRECTION ( 'NONE',  ( 1.000000000000000000, 0.0000000000000000000, -3.491130995403324278E-15 ) ) ;
#108 = ADVANCED_FACE ( 'NONE', ( #237, #69 ), #201, .T. ) ;
#109 = COORDINATED_UNIVERSAL_TIME_OFFSET ( 1, 0, .AHEAD. ) ;
#110 = ORIENTED_EDGE ( 'NONE', *, *, #19, .T. ) ;
#111 = TOROIDAL_SURFACE ( 'NONE', #179, 9.250000000000000000, 8.000000000000000000 ) ;
#112 = FACE_OUTER_BOUND ( 'NONE', #95, .T. ) ;
#113 = DIRECTION ( 'NONE',  ( -4.271469831664863477E-31, -1.000000000000000000, -1.223397583181748052E-16 ) ) ;
#114 = CC_DESIGN_PERSON_AND_ORGANIZATION_ASSIGNMENT ( #126, #85, ( #199 ) ) ;
#115 = CONICAL_SURFACE ( 'NONE', #65, 1.999999999999994005, 0.7853981633974482790 ) ;
#116 = CARTESIAN_POINT ( 'NONE',  ( 1.731774744066194397E-13, -6.074248123770872657E-15, 49.60000000000000853 ) ) ;
#117 = CARTESIAN_POINT ( 'NONE',  ( 1.745740669421566362E-14, -6.116987915908739766E-16, 4.999999999999999112 ) ) ;
#118 = CLOSED_SHELL ( 'NONE', ( #208, #72, #29, #160, #153 ) ) ;
#119 =( LENGTH_UNIT ( ) NAMED_UNIT ( * ) SI_UNIT ( .MILLI., .METRE. ) );
#120 = ADVANCED_BREP_SHAPE_REPRESENTATION ( '47360', ( #23, #189, #2 ), #194 ) ;
#121 = FACE_OUTER_BOUND ( 'NONE', #76, .T. ) ;
#122 = DATE_AND_TIME ( #149, #36 ) ;
#123 = APPROVAL_DATE_TIME ( #129, #167 ) ;
#124 = CC_DESIGN_SECURITY_CLASSIFICATION ( #199, ( #61 ) ) ;
#125 = PERSON_AND_ORGANIZATION ( #234, #144 ) ;
#126 = PERSON_AND_ORGANIZATION ( #234, #144 ) ;
#127 = CC_DESIGN_PERSON_AND_ORGANIZATION_ASSIGNMENT ( #218, #32, ( #61 ) ) ;
#128 = DIRECTION ( 'NONE',  ( 3.491481338843133355E-15, -0.0000000000000000000, 1.000000000000000000 ) ) ;
#129 = DATE_AND_TIME ( #147, #26 ) ;
#130 = CARTESIAN_POINT ( 'NONE',  ( 3.491481338843133355E-16, 0.0000000000000000000, 0.1000000000000000056 ) ) ;
#131 = AXIS2_PLACEMENT_3D ( 'NONE', #52, #128, #107 ) ;
#132 = CIRCLE ( 'NONE', #31, 1.999999999999997113 ) ;
#133 = CARTESIAN_POINT ( 'NONE',  ( 1.731774744066194397E-13, -6.074248123770872657E-15, 49.60000000000000853 ) ) ;
#134 = EDGE_LOOP ( 'NONE', ( #224 ) ) ;
#135 = EDGE_CURVE ( 'NONE', #78, #78, #132, .T. ) ;
#136 = EDGE_LOOP ( 'NONE', ( #110 ) ) ;
#137 = VERTEX_POINT ( 'NONE', #196 ) ;
#138 = VERTEX_POINT ( 'NONE', #47 ) ;
#139 = CC_DESIGN_APPROVAL ( #40, ( #199 ) ) ;
#140 = CARTESIAN_POINT ( 'NONE',  ( 1.745740669421566678E-13, 1.599999999999990319, 50.00000000000000000 ) ) ;
#141 = CC_DESIGN_APPROVAL ( #177, ( #56 ) ) ;
#142 = DIRECTION ( 'NONE',  ( -4.275831445896958607E-31, -1.000000000000000000, -1.224646799147353207E-16 ) ) ;
#143 = ADVANCED_FACE ( 'NONE', ( #165 ), #18, .T. ) ;
#144 = ORGANIZATION ( 'UNSPECIFIED', 'UNSPECIFIED', '' ) ;
#145 = ORIENTED_EDGE ( 'NONE', *, *, #135, .F. ) ;
#146 = APPLICATION_CONTEXT ( 'configuration controlled 3d designs of mechanical parts and assemblies' ) ;
#147 = CALENDAR_DATE ( 2021, 12, 11 ) ;
#148 = DIRECTION ( 'NONE',  ( 3.491481338843133355E-15, -1.223397583181748052E-16, 1.000000000000000000 ) ) ;
#149 = CALENDAR_DATE ( 2021, 12, 11 ) ;
#150 = AXIS2_PLACEMENT_3D ( 'NONE', #66, #80, #142 ) ;
#151 = CLOSED_SHELL ( 'NONE', ( #48, #143, #108, #187 ) ) ;
#152 = LOCAL_TIME ( 7, 57, 8.000000000000000000, #109 ) ;
#153 = ADVANCED_FACE ( 'NONE', ( #100 ), #212, .F. ) ;
#154 = ORIENTED_EDGE ( 'NONE', *, *, #198, .F. ) ;
#155 = FACE_OUTER_BOUND ( 'NONE', #54, .T. ) ;
#156 = LOCAL_TIME ( 7, 57, 8.000000000000000000, #180 ) ;
#157 = CYLINDRICAL_SURFACE ( 'NONE', #89, 1.999999999999997113 ) ;
#158 = DIRECTION ( 'NONE',  ( -3.491481338843133355E-15, 1.224646799147353207E-16, -1.000000000000000000 ) ) ;
#159 = DIRECTION ( 'NONE',  ( 0.0000000000000000000, 1.000000000000000000, 0.0000000000000000000 ) ) ;
#160 = ADVANCED_FACE ( 'NONE', ( #121, #213 ), #111, .F. ) ;
#161 = CALENDAR_DATE ( 2021, 12, 11 ) ;
#162 = PERSON_AND_ORGANIZATION ( #234, #144 ) ;
#163 = FACE_OUTER_BOUND ( 'NONE', #134, .T. ) ;
#164 = APPROVAL_STATUS ( 'not_yet_approved' ) ;
#165 = FACE_OUTER_BOUND ( 'NONE', #75, .T. ) ;
#166 = PERSON_AND_ORGANIZATION_ROLE ( 'creator' ) ;
#167 = APPROVAL ( #12, 'UNSPECIFIED' ) ;
#168 = APPROVAL_PERSON_ORGANIZATION ( #51, #177, #33 ) ;
#169 = DIRECTION ( 'NONE',  ( -3.491481338843133355E-15, 1.224646799147353207E-16, -1.000000000000000000 ) ) ;
#170 = DIRECTION ( 'NONE',  ( 4.275831445896958607E-31, 1.000000000000000000, 1.224646799147353207E-16 ) ) ;
#171 = APPROVAL_PERSON_ORGANIZATION ( #10, #167, #86 ) ;
#172 = EDGE_LOOP ( 'NONE', ( #58 ) ) ;
#173 = CARTESIAN_POINT ( 'NONE',  ( 1.745740669421566678E-13, -6.123233995736766085E-15, 50.00000000000000000 ) ) ;
#174 = VERTEX_POINT ( 'NONE', #6 ) ;
#175 = DIRECTION ( 'NONE',  ( 4.275831445896958607E-31, 1.000000000000000000, 1.224646799147353207E-16 ) ) ;
#176 = VERTEX_POINT ( 'NONE', #24 ) ;
#177 = APPROVAL ( #164, 'UNSPECIFIED' ) ;
#178 = CARTESIAN_POINT ( 'NONE',  ( 0.0000000000000000000, 0.0000000000000000000, 0.0000000000000000000 ) ) ;
#179 = AXIS2_PLACEMENT_3D ( 'NONE', #82, #210, #25 ) ;
#180 = COORDINATED_UNIVERSAL_TIME_OFFSET ( 1, 0, .AHEAD. ) ;
#181 = APPROVAL_ROLE ( '' ) ;
#182 = SHAPE_DEFINITION_REPRESENTATION ( #55, #120 ) ;
#183 = DATE_AND_TIME ( #186, #156 ) ;
#184 = AXIS2_PLACEMENT_3D ( 'NONE', #133, #202, #240 ) ;
#185 = DIRECTION ( 'NONE',  ( 3.491481338843133355E-15, -1.223397583181748052E-16, 1.000000000000000000 ) ) ;
#186 = CALENDAR_DATE ( 2021, 12, 11 ) ;
#187 = ADVANCED_FACE ( 'NONE', ( #44 ), #28, .T. ) ;
#188 = APPLICATION_CONTEXT ( 'configuration controlled 3d designs of mechanical parts and assemblies' ) ;
#189 = MANIFOLD_SOLID_BREP ( 'Corps-Déplacer/Copier1[2]', #151 ) ;
#190 = DIRECTION ( 'NONE',  ( 3.491481338843133355E-15, -0.0000000000000000000, 1.000000000000000000 ) ) ;
#191 = UNCERTAINTY_MEASURE_WITH_UNIT (LENGTH_MEASURE( 1.000000000000000082E-05 ), #119, 'distance_accuracy_value', 'NONE');
#192 = CARTESIAN_POINT ( 'NONE',  ( 2.926537771733875278E-14, -4.137453937174808945E-16, 8.381937314617163182 ) ) ;
#193 = DIRECTION ( 'NONE',  ( 1.000000000000000000, 0.0000000000000000000, -3.491130995403324278E-15 ) ) ;
#194 =( GEOMETRIC_REPRESENTATION_CONTEXT ( 3 ) GLOBAL_UNCERTAINTY_ASSIGNED_CONTEXT ( ( #191 ) ) GLOBAL_UNIT_ASSIGNED_CONTEXT ( ( #119, #211, #27 ) ) REPRESENTATION_CONTEXT ( 'NONE', 'WORKASPACE' ) );
#195 = EDGE_CURVE ( 'NONE', #101, #101, #74, .T. ) ;
#196 = CARTESIAN_POINT ( 'NONE',  ( 1.745740669421566362E-14, -1.250000000000000666, 4.999999999999999112 ) ) ;
#197 = CARTESIAN_POINT ( 'NONE',  ( 1.745740669421566678E-14, 1.499759782661856787E-32, 5.000000000000000000 ) ) ;
#198 = EDGE_CURVE ( 'NONE', #138, #138, #227, .T. ) ;
#199 = SECURITY_CLASSIFICATION ( '', '', #71 ) ;
#200 = EDGE_LOOP ( 'NONE', ( #204 ) ) ;
#201 = CONICAL_SURFACE ( 'NONE', #131, 1.250000000000000000, 0.7853981633974495002 ) ;
#202 = DIRECTION ( 'NONE',  ( -3.491481338843133355E-15, 1.224646799147353207E-16, -1.000000000000000000 ) ) ;
#203 = AXIS2_PLACEMENT_3D ( 'NONE', #46, #158, #209 ) ;
#204 = ORIENTED_EDGE ( 'NONE', *, *, #225, .F. ) ;
#205 = DESIGN_CONTEXT ( 'detailed design', #146, 'design' ) ;
#206 = ORIENTED_EDGE ( 'NONE', *, *, #195, .T. ) ;
#207 = FACE_OUTER_BOUND ( 'NONE', #223, .T. ) ;
#208 = ADVANCED_FACE ( 'NONE', ( #5, #228 ), #157, .T. ) ;
#209 = DIRECTION ( 'NONE',  ( 4.275831445896958607E-31, 1.000000000000000000, 1.224646799147353207E-16 ) ) ;
#210 = DIRECTION ( 'NONE',  ( 3.491481338843133355E-15, -1.223397583181748052E-16, 1.000000000000000000 ) ) ;
#211 =( NAMED_UNIT ( * ) PLANE_ANGLE_UNIT ( ) SI_UNIT ( $, .RADIAN. ) );
#212 = PLANE ( 'NONE',  #43 ) ;
#213 = FACE_OUTER_BOUND ( 'NONE', #13, .T. ) ;
#214 = CIRCLE ( 'NONE', #97, 1.149999999999999689 ) ;
#215 = COORDINATED_UNIVERSAL_TIME_OFFSET ( 1, 0, .AHEAD. ) ;
#216 = APPLICATION_PROTOCOL_DEFINITION ( 'international standard', 'config_control_design', 1994, #188 ) ;
#217 = EDGE_LOOP ( 'NONE', ( #206 ) ) ;
#218 = PERSON_AND_ORGANIZATION ( #234, #144 ) ;
#219 = EDGE_CURVE ( 'NONE', #137, #137, #22, .T. ) ;
#220 = ORIENTED_EDGE ( 'NONE', *, *, #64, .T. ) ;
#221 = DATE_TIME_ROLE ( 'classification_date' ) ;
#222 = CIRCLE ( 'NONE', #235, 1.250000000000000000 ) ;
#223 = EDGE_LOOP ( 'NONE', ( #154 ) ) ;
#224 = ORIENTED_EDGE ( 'NONE', *, *, #195, .F. ) ;
#225 = EDGE_CURVE ( 'NONE', #174, #174, #214, .T. ) ;
#226 = CARTESIAN_POINT ( 'NONE',  ( -4.731839565957903391E-32, 0.0000000000000000000, -1.355252715606880543E-17 ) ) ;
#227 = CIRCLE ( 'NONE', #73, 1.250000000000000000 ) ;
#228 = FACE_OUTER_BOUND ( 'NONE', #39, .T. ) ;
#229 = DIRECTION ( 'NONE',  ( -3.491481338843133355E-15, 1.224646799147353207E-16, -1.000000000000000000 ) ) ;
#230 = APPROVAL_PERSON_ORGANIZATION ( #125, #40, #181 ) ;
#231 = DIRECTION ( 'NONE',  ( 3.491481338843133355E-15, -1.223397583181748052E-16, 1.000000000000000000 ) ) ;
#232 = DATE_AND_TIME ( #161, #94 ) ;
#233 = APPROVAL_DATE_TIME ( #232, #40 ) ;
#234 = PERSON ( 'UNSPECIFIED', 'UNSPECIFIED', 'UNSPECIFIED', ('UNSPECIFIED'), ('UNSPECIFIED'), ('UNSPECIFIED') ) ;
#235 = AXIS2_PLACEMENT_3D ( 'NONE', #130, #190, #193 ) ;
#236 = APPROVAL_DATE_TIME ( #183, #177 ) ;
#237 = FACE_BOUND ( 'NONE', #172, .T. ) ;
#238 = PRODUCT ( '47360', '47360', '', ( #90 ) ) ;
#239 = DATE_TIME_ROLE ( 'creation_date' ) ;
#240 = DIRECTION ( 'NONE',  ( 0.0000000000000000000, 1.000000000000000000, 0.0000000000000000000 ) ) ;
#241 = COORDINATED_UNIVERSAL_TIME_OFFSET ( 1, 0, .AHEAD. ) ;
#242 = AXIS2_PLACEMENT_3D ( 'NONE', #70, #148, #113 ) ;
#243 = CYLINDRICAL_SURFACE ( 'NONE', #242, 1.250000000000000000 ) ;
ENDSEC;
END-ISO-10303-21;
