ISO-10303-21;
HEADER;
FILE_DESCRIPTION (( 'STEP AP203' ),
    '1' );
FILE_NAME ('47359.step',
    '2021-11-12T06:57:07',
    ( '' ),
    ( '' ),
    'SwSTEP 2.0',
    'SolidWorks 2019',
    '' );
FILE_SCHEMA (( 'CONFIG_CONTROL_DESIGN' ));
ENDSEC;

DATA;
#1 = DIRECTION ( 'NONE',  ( 4.275831445896958607E-31, 1.000000000000000000, 1.224646799147353207E-16 ) ) ;
#2 = FACE_OUTER_BOUND ( 'NONE', #99, .T. ) ;
#3 = EDGE_CURVE ( 'NONE', #15, #15, #164, .T. ) ;
#4 = APPLICATION_CONTEXT ( 'configuration controlled 3d designs of mechanical parts and assemblies' ) ;
#5 =( NAMED_UNIT ( * ) SI_UNIT ( $, .STERADIAN. ) SOLID_ANGLE_UNIT ( ) );
#6 = AXIS2_PLACEMENT_3D ( 'NONE', #63, #118, #136 ) ;
#7 = COORDINATED_UNIVERSAL_TIME_OFFSET ( 1, 0, .AHEAD. ) ;
#8 = PERSON_AND_ORGANIZATION ( #85, #12 ) ;
#9 = LOCAL_TIME ( 7, 57, 7.000000000000000000, #86 ) ;
#10 = ADVANCED_FACE ( 'NONE', ( #101 ), #209, .T. ) ;
#11 = COORDINATED_UNIVERSAL_TIME_OFFSET ( 1, 0, .AHEAD. ) ;
#12 = ORGANIZATION ( 'UNSPECIFIED', 'UNSPECIFIED', '' ) ;
#13 = ORIENTED_EDGE ( 'NONE', *, *, #191, .F. ) ;
#14 = FACE_OUTER_BOUND ( 'NONE', #221, .T. ) ;
#15 = VERTEX_POINT ( 'NONE', #96 ) ;
#16 = ORIENTED_EDGE ( 'NONE', *, *, #22, .T. ) ;
#17 = DIRECTION ( 'NONE',  ( -3.491481338843133355E-15, 1.224646799147353207E-16, -1.000000000000000000 ) ) ;
#18 = DIRECTION ( 'NONE',  ( 3.491481338843133355E-15, -0.0000000000000000000, 1.000000000000000000 ) ) ;
#19 = DIRECTION ( 'NONE',  ( 3.491481338843133355E-15, -0.0000000000000000000, 1.000000000000000000 ) ) ;
#20 = CARTESIAN_POINT ( 'NONE',  ( 0.0000000000000000000, 0.0000000000000000000, 0.0000000000000000000 ) ) ;
#21 = TOROIDAL_SURFACE ( 'NONE', #57, 9.000000000000001776, 8.000000000000000000 ) ;
#22 = EDGE_CURVE ( 'NONE', #235, #235, #150, .T. ) ;
#23 = CARTESIAN_POINT ( 'NONE',  ( 1.396592535537253027E-14, -4.893590332726991221E-16, 3.999999999999999112 ) ) ;
#24 = CLOSED_SHELL ( 'NONE', ( #183, #162, #54, #10 ) ) ;
#25 = MANIFOLD_SOLID_BREP ( 'Corps-Déplacer/Copier1[1]', #175 ) ;
#26 = PERSON_AND_ORGANIZATION ( #85, #12 ) ;
#27 = APPROVAL_PERSON_ORGANIZATION ( #69, #75, #230 ) ;
#28 = PERSON_AND_ORGANIZATION_ROLE ( 'classification_officer' ) ;
#29 = CC_DESIGN_PERSON_AND_ORGANIZATION_ASSIGNMENT ( #8, #193, ( #120 ) ) ;
#30 = APPROVAL_ROLE ( '' ) ;
#31 = CIRCLE ( 'NONE', #236, 1.999999999999994005 ) ;
#32 = PERSON_AND_ORGANIZATION ( #85, #12 ) ;
#33 = DESIGN_CONTEXT ( 'detailed design', #238, 'design' ) ;
#34 = AXIS2_PLACEMENT_3D ( 'NONE', #155, #17, #100 ) ;
#35 = VERTEX_POINT ( 'NONE', #204 ) ;
#36 = CARTESIAN_POINT ( 'NONE',  ( 1.396592535537253027E-14, -1.000000000000001776, 3.999999999999999112 ) ) ;
#37 = ORIENTED_EDGE ( 'NONE', *, *, #89, .T. ) ;
#38 = ORIENTED_EDGE ( 'NONE', *, *, #140, .F. ) ;
#39 = CARTESIAN_POINT ( 'NONE',  ( 3.491481338843133355E-16, 0.0000000000000000000, 0.1000000000000000056 ) ) ;
#40 = ORIENTED_EDGE ( 'NONE', *, *, #227, .T. ) ;
#41 = DIRECTION ( 'NONE',  ( 3.491481338843133355E-15, -1.224646799147353207E-16, 1.000000000000000000 ) ) ;
#42 = DIRECTION ( 'NONE',  ( -4.271469831664864353E-31, -1.000000000000000000, -1.223397583181748052E-16 ) ) ;
#43 = CARTESIAN_POINT ( 'NONE',  ( 2.748837443430593632E-14, 1.999999999999996669, 7.872983346207408140 ) ) ;
#44 = CC_DESIGN_PERSON_AND_ORGANIZATION_ASSIGNMENT ( #143, #123, ( #126 ) ) ;
#45 = CARTESIAN_POINT ( 'NONE',  ( 1.396592535537253342E-14, 1.499759782661856787E-32, 4.000000000000000000 ) ) ;
#46 = FACE_BOUND ( 'NONE', #78, .T. ) ;
#47 = AXIS2_PLACEMENT_3D ( 'NONE', #207, #222, #42 ) ;
#48 = DATE_AND_TIME ( #55, #200 ) ;
#49 = AXIS2_PLACEMENT_3D ( 'NONE', #39, #141, #95 ) ;
#50 = PRODUCT_DEFINITION_SHAPE ( 'NONE', 'NONE',  #120 ) ;
#51 = APPROVAL_ROLE ( '' ) ;
#52 =( NAMED_UNIT ( * ) PLANE_ANGLE_UNIT ( ) SI_UNIT ( $, .RADIAN. ) );
#53 = DATE_AND_TIME ( #90, #9 ) ;
#54 = ADVANCED_FACE ( 'NONE', ( #156, #14 ), #199, .T. ) ;
#55 = CALENDAR_DATE ( 2021, 12, 11 ) ;
#56 = DATE_AND_TIME ( #144, #231 ) ;
#57 = AXIS2_PLACEMENT_3D ( 'NONE', #134, #172, #226 ) ;
#58 = EDGE_CURVE ( 'NONE', #35, #35, #181, .T. ) ;
#59 = EDGE_LOOP ( 'NONE', ( #38 ) ) ;
#60 = FACE_OUTER_BOUND ( 'NONE', #76, .T. ) ;
#61 = CARTESIAN_POINT ( 'NONE',  ( 0.8999999999999998002, 0.0000000000000000000, -3.155885732114888036E-15 ) ) ;
#62 = EDGE_LOOP ( 'NONE', ( #168 ) ) ;
#63 = CARTESIAN_POINT ( 'NONE',  ( 2.748837443430593632E-14, -4.738198465453302984E-16, 7.872983346207408140 ) ) ;
#64 = AXIS2_PLACEMENT_3D ( 'NONE', #186, #18, #225 ) ;
#65 = CARTESIAN_POINT ( 'NONE',  ( 1.396592535537253342E-14, 1.499759782661856787E-32, 4.000000000000000000 ) ) ;
#66 = DIRECTION ( 'NONE',  ( -3.491481338843133355E-15, 1.224646799147353207E-16, -1.000000000000000000 ) ) ;
#67 = CARTESIAN_POINT ( 'NONE',  ( 1.731774744066194397E-13, 1.999999999999988010, 49.60000000000000853 ) ) ;
#68 = DIRECTION ( 'NONE',  ( -4.275831445896958607E-31, -1.000000000000000000, -1.224646799147353207E-16 ) ) ;
#69 = PERSON_AND_ORGANIZATION ( #85, #12 ) ;
#70 = APPROVAL ( #125, 'UNSPECIFIED' ) ;
#71 = SECURITY_CLASSIFICATION_LEVEL ( 'unclassified' ) ;
#72 = APPROVAL_DATE_TIME ( #108, #75 ) ;
#73 = VERTEX_POINT ( 'NONE', #36 ) ;
#74 = CONICAL_SURFACE ( 'NONE', #81, 1.999999999999994005, 0.7853981633974482790 ) ;
#75 = APPROVAL ( #176, 'UNSPECIFIED' ) ;
#76 = EDGE_LOOP ( 'NONE', ( #153 ) ) ;
#77 = PLANE ( 'NONE',  #194 ) ;
#78 = EDGE_LOOP ( 'NONE', ( #37 ) ) ;
#79 = FACE_OUTER_BOUND ( 'NONE', #201, .T. ) ;
#80 = DIRECTION ( 'NONE',  ( 3.491481338843133355E-15, -1.224646799147353207E-16, 1.000000000000000000 ) ) ;
#81 = AXIS2_PLACEMENT_3D ( 'NONE', #139, #158, #166 ) ;
#82 = FACE_OUTER_BOUND ( 'NONE', #205, .T. ) ;
#83 = CC_DESIGN_APPROVAL ( #148, ( #169 ) ) ;
#84 = CARTESIAN_POINT ( 'NONE',  ( 1.745740669421566678E-13, 1.199807826129474181E-32, 50.00000000000000000 ) ) ;
#85 = PERSON ( 'UNSPECIFIED', 'UNSPECIFIED', 'UNSPECIFIED', ('UNSPECIFIED'), ('UNSPECIFIED'), ('UNSPECIFIED') ) ;
#86 = COORDINATED_UNIVERSAL_TIME_OFFSET ( 1, 0, .AHEAD. ) ;
#87 = LOCAL_TIME ( 7, 57, 7.000000000000000000, #7 ) ;
#88 = APPROVAL_STATUS ( 'not_yet_approved' ) ;
#89 = EDGE_CURVE ( 'NONE', #111, #111, #109, .T. ) ;
#90 = CALENDAR_DATE ( 2021, 12, 11 ) ;
#91 = DATE_AND_TIME ( #215, #217 ) ;
#92 = DIRECTION ( 'NONE',  ( 0.0000000000000000000, 0.0000000000000000000, 1.000000000000000000 ) ) ;
#93 = ADVANCED_FACE ( 'NONE', ( #2, #82 ), #21, .F. ) ;
#94 = EDGE_LOOP ( 'NONE', ( #16 ) ) ;
#95 = DIRECTION ( 'NONE',  ( 1.000000000000000000, 0.0000000000000000000, -3.496552006265751800E-15 ) ) ;
#96 = CARTESIAN_POINT ( 'NONE',  ( 1.000000000000000444, 0.0000000000000000000, 0.09999999999999650835 ) ) ;
#97 = EDGE_LOOP ( 'NONE', ( #233 ) ) ;
#98 = CARTESIAN_POINT ( 'NONE',  ( 1.396592535537253027E-14, -4.893590332726991221E-16, 3.999999999999999112 ) ) ;
#99 = EDGE_LOOP ( 'NONE', ( #13 ) ) ;
#100 = DIRECTION ( 'NONE',  ( 0.0000000000000000000, 1.000000000000000000, 0.0000000000000000000 ) ) ;
#101 = FACE_OUTER_BOUND ( 'NONE', #219, .T. ) ;
#102 = DIRECTION ( 'NONE',  ( 4.275831445896958607E-31, 1.000000000000000000, 1.224646799147353207E-16 ) ) ;
#103 = ADVANCED_FACE ( 'NONE', ( #46, #60 ), #74, .T. ) ;
#104 = CARTESIAN_POINT ( 'NONE',  ( 1.731774744066194397E-13, -6.074248123770872657E-15, 49.60000000000000853 ) ) ;
#105 = AXIS2_PLACEMENT_3D ( 'NONE', #214, #92, #229 ) ;
#106 = PERSON_AND_ORGANIZATION ( #85, #12 ) ;
#107 =( GEOMETRIC_REPRESENTATION_CONTEXT ( 3 ) GLOBAL_UNCERTAINTY_ASSIGNED_CONTEXT ( ( #242 ) ) GLOBAL_UNIT_ASSIGNED_CONTEXT ( ( #147, #52, #5 ) ) REPRESENTATION_CONTEXT ( 'NONE', 'WORKASPACE' ) );
#108 = DATE_AND_TIME ( #211, #87 ) ;
#109 = CIRCLE ( 'NONE', #34, 1.599999999999996314 ) ;
#110 = AXIS2_PLACEMENT_3D ( 'NONE', #84, #220, #102 ) ;
#111 = VERTEX_POINT ( 'NONE', #232 ) ;
#112 = CC_DESIGN_DATE_AND_TIME_ASSIGNMENT ( #53, #161, ( #132 ) ) ;
#113 = ORIENTED_EDGE ( 'NONE', *, *, #3, .T. ) ;
#114 = DIRECTION ( 'NONE',  ( -4.275831445896958607E-31, -1.000000000000000000, -1.224646799147353207E-16 ) ) ;
#115 = DIRECTION ( 'NONE',  ( 3.491481338843133355E-15, -1.223397583181748052E-16, 1.000000000000000000 ) ) ;
#116 = CIRCLE ( 'NONE', #6, 1.999999999999997113 ) ;
#117 = FACE_OUTER_BOUND ( 'NONE', #202, .T. ) ;
#118 = DIRECTION ( 'NONE',  ( 3.491481338843133355E-15, -1.223397583181748052E-16, 1.000000000000000000 ) ) ;
#119 = VERTEX_POINT ( 'NONE', #67 ) ;
#120 = PRODUCT_DEFINITION ( 'UNKNOWN', '', #169, #33 ) ;
#121 = FACE_OUTER_BOUND ( 'NONE', #62, .T. ) ;
#122 = APPROVAL_PERSON_ORGANIZATION ( #32, #148, #51 ) ;
#123 = PERSON_AND_ORGANIZATION_ROLE ( 'design_owner' ) ;
#124 = AXIS2_PLACEMENT_3D ( 'NONE', #239, #66, #224 ) ;
#125 = APPROVAL_STATUS ( 'not_yet_approved' ) ;
#126 = PRODUCT ( '47359', '47359', '', ( #228 ) ) ;
#127 = APPROVAL_DATE_TIME ( #48, #148 ) ;
#128 = CC_DESIGN_APPROVAL ( #75, ( #120 ) ) ;
#129 = ADVANCED_FACE ( 'NONE', ( #121 ), #208, .F. ) ;
#130 = AXIS2_PLACEMENT_3D ( 'NONE', #187, #19, #137 ) ;
#131 = ORIENTED_EDGE ( 'NONE', *, *, #140, .T. ) ;
#132 = SECURITY_CLASSIFICATION ( '', '', #71 ) ;
#133 = EDGE_LOOP ( 'NONE', ( #40 ) ) ;
#134 = CARTESIAN_POINT ( 'NONE',  ( 1.396592535537253027E-14, 0.0000000000000000000, 3.999999999999999112 ) ) ;
#135 = ORIENTED_EDGE ( 'NONE', *, *, #191, .T. ) ;
#136 = DIRECTION ( 'NONE',  ( 0.0000000000000000000, 1.000000000000000000, 0.0000000000000000000 ) ) ;
#137 = DIRECTION ( 'NONE',  ( 1.000000000000000000, 0.0000000000000000000, -3.491481338843133355E-15 ) ) ;
#138 = CC_DESIGN_SECURITY_CLASSIFICATION ( #132, ( #169 ) ) ;
#139 = CARTESIAN_POINT ( 'NONE',  ( 1.731774744066194397E-13, -6.074248123770872657E-15, 49.60000000000000853 ) ) ;
#140 = EDGE_CURVE ( 'NONE', #73, #73, #243, .T. ) ;
#141 = DIRECTION ( 'NONE',  ( 3.491481338843133355E-15, -0.0000000000000000000, 1.000000000000000000 ) ) ;
#142 = AXIS2_PLACEMENT_3D ( 'NONE', #20, #173, #1 ) ;
#143 = PERSON_AND_ORGANIZATION ( #85, #12 ) ;
#144 = CALENDAR_DATE ( 2021, 12, 11 ) ;
#145 = PRODUCT_RELATED_PRODUCT_CATEGORY ( 'detail', '', ( #126 ) ) ;
#146 = DATE_TIME_ROLE ( 'creation_date' ) ;
#147 =( LENGTH_UNIT ( ) NAMED_UNIT ( * ) SI_UNIT ( .MILLI., .METRE. ) );
#148 = APPROVAL ( #88, 'UNSPECIFIED' ) ;
#149 = PERSON_AND_ORGANIZATION ( #85, #12 ) ;
#150 = CIRCLE ( 'NONE', #130, 0.8999999999999998002 ) ;
#151 = ORIENTED_EDGE ( 'NONE', *, *, #3, .F. ) ;
#152 = FACE_OUTER_BOUND ( 'NONE', #59, .T. ) ;
#153 = ORIENTED_EDGE ( 'NONE', *, *, #227, .F. ) ;
#154 = CYLINDRICAL_SURFACE ( 'NONE', #47, 1.000000000000000666 ) ;
#155 = CARTESIAN_POINT ( 'NONE',  ( 1.745740669421566678E-13, -6.123233995736766085E-15, 50.00000000000000000 ) ) ;
#156 = FACE_BOUND ( 'NONE', #94, .T. ) ;
#157 = CC_DESIGN_PERSON_AND_ORGANIZATION_ASSIGNMENT ( #213, #28, ( #132 ) ) ;
#158 = DIRECTION ( 'NONE',  ( -3.491481338843133355E-15, 1.224646799147353207E-16, -1.000000000000000000 ) ) ;
#159 = APPROVAL_PERSON_ORGANIZATION ( #26, #70, #30 ) ;
#160 = COORDINATED_UNIVERSAL_TIME_OFFSET ( 1, 0, .AHEAD. ) ;
#161 = DATE_TIME_ROLE ( 'classification_date' ) ;
#162 = ADVANCED_FACE ( 'NONE', ( #189 ), #77, .T. ) ;
#163 = APPLICATION_PROTOCOL_DEFINITION ( 'international standard', 'config_control_design', 1994, #238 ) ;
#164 = CIRCLE ( 'NONE', #64, 1.000000000000000000 ) ;
#165 = ORIENTED_EDGE ( 'NONE', *, *, #58, .T. ) ;
#166 = DIRECTION ( 'NONE',  ( 0.0000000000000000000, 1.000000000000000000, 0.0000000000000000000 ) ) ;
#167 = CC_DESIGN_PERSON_AND_ORGANIZATION_ASSIGNMENT ( #106, #179, ( #169 ) ) ;
#168 = ORIENTED_EDGE ( 'NONE', *, *, #89, .F. ) ;
#169 = PRODUCT_DEFINITION_FORMATION_WITH_SPECIFIED_SOURCE ( 'ANY', '', #126, .NOT_KNOWN. ) ;
#170 = FACE_OUTER_BOUND ( 'NONE', #97, .T. ) ;
#171 = DIRECTION ( 'NONE',  ( 0.0000000000000000000, 1.000000000000000000, 0.0000000000000000000 ) ) ;
#172 = DIRECTION ( 'NONE',  ( 3.491481338843133355E-15, -1.223397583181748052E-16, 1.000000000000000000 ) ) ;
#173 = DIRECTION ( 'NONE',  ( -3.491481338843133355E-15, 1.224646799147353207E-16, -1.000000000000000000 ) ) ;
#174 = APPLICATION_PROTOCOL_DEFINITION ( 'international standard', 'config_control_design', 1994, #4 ) ;
#175 = CLOSED_SHELL ( 'NONE', ( #218, #103, #129, #93, #177 ) ) ;
#176 = APPROVAL_STATUS ( 'not_yet_approved' ) ;
#177 = ADVANCED_FACE ( 'NONE', ( #152 ), #203, .F. ) ;
#178 = APPROVAL_DATE_TIME ( #56, #70 ) ;
#179 = PERSON_AND_ORGANIZATION_ROLE ( 'creator' ) ;
#180 = MANIFOLD_SOLID_BREP ( 'Corps-Déplacer/Copier1[2]', #24 ) ;
#181 = CIRCLE ( 'NONE', #223, 1.000000000000001332 ) ;
#182 = AXIS2_PLACEMENT_3D ( 'NONE', #65, #41, #114 ) ;
#183 = ADVANCED_FACE ( 'NONE', ( #170, #79 ), #154, .T. ) ;
#184 = ORIENTED_EDGE ( 'NONE', *, *, #22, .F. ) ;
#185 = DIRECTION ( 'NONE',  ( 0.0000000000000000000, -1.000000000000000000, 0.0000000000000000000 ) ) ;
#186 = CARTESIAN_POINT ( 'NONE',  ( 3.491481338843133355E-16, 0.0000000000000000000, 0.1000000000000000056 ) ) ;
#187 = CARTESIAN_POINT ( 'NONE',  ( -4.731839565957903391E-32, 0.0000000000000000000, -1.355252715606880543E-17 ) ) ;
#188 = CYLINDRICAL_SURFACE ( 'NONE', #142, 1.999999999999997113 ) ;
#189 = FACE_OUTER_BOUND ( 'NONE', #237, .T. ) ;
#190 = AXIS2_PLACEMENT_3D ( 'NONE', #23, #241, #234 ) ;
#191 = EDGE_CURVE ( 'NONE', #240, #240, #116, .T. ) ;
#192 = ADVANCED_BREP_SHAPE_REPRESENTATION ( '47359', ( #25, #180, #105 ), #107 ) ;
#193 = PERSON_AND_ORGANIZATION_ROLE ( 'creator' ) ;
#194 = AXIS2_PLACEMENT_3D ( 'NONE', #45, #80, #68 ) ;
#195 = CC_DESIGN_APPROVAL ( #70, ( #132 ) ) ;
#196 = CC_DESIGN_PERSON_AND_ORGANIZATION_ASSIGNMENT ( #149, #216, ( #169 ) ) ;
#197 = SHAPE_DEFINITION_REPRESENTATION ( #50, #192 ) ;
#198 = COORDINATED_UNIVERSAL_TIME_OFFSET ( 1, 0, .AHEAD. ) ;
#199 = CONICAL_SURFACE ( 'NONE', #49, 1.000000000000000000, 0.7853981633974495002 ) ;
#200 = LOCAL_TIME ( 7, 57, 7.000000000000000000, #198 ) ;
#201 = EDGE_LOOP ( 'NONE', ( #113 ) ) ;
#202 = EDGE_LOOP ( 'NONE', ( #135 ) ) ;
#203 = PLANE ( 'NONE',  #182 ) ;
#204 = CARTESIAN_POINT ( 'NONE',  ( 1.396592535537253027E-14, -1.000000000000001776, 3.999999999999999112 ) ) ;
#205 = EDGE_LOOP ( 'NONE', ( #131 ) ) ;
#206 = FACE_OUTER_BOUND ( 'NONE', #133, .T. ) ;
#207 = CARTESIAN_POINT ( 'NONE',  ( 0.0000000000000000000, 0.0000000000000000000, 0.0000000000000000000 ) ) ;
#208 = PLANE ( 'NONE',  #110 ) ;
#209 = PLANE ( 'NONE',  #124 ) ;
#210 = CC_DESIGN_DATE_AND_TIME_ASSIGNMENT ( #91, #146, ( #120 ) ) ;
#211 = CALENDAR_DATE ( 2021, 12, 11 ) ;
#212 = DIRECTION ( 'NONE',  ( -3.491481338843133355E-15, 1.224646799147353207E-16, -1.000000000000000000 ) ) ;
#213 = PERSON_AND_ORGANIZATION ( #85, #12 ) ;
#214 = CARTESIAN_POINT ( 'NONE',  ( 0.0000000000000000000, 0.0000000000000000000, 0.0000000000000000000 ) ) ;
#215 = CALENDAR_DATE ( 2021, 12, 11 ) ;
#216 = PERSON_AND_ORGANIZATION_ROLE ( 'design_supplier' ) ;
#217 = LOCAL_TIME ( 7, 57, 7.000000000000000000, #11 ) ;
#218 = ADVANCED_FACE ( 'NONE', ( #206, #117 ), #188, .T. ) ;
#219 = EDGE_LOOP ( 'NONE', ( #184 ) ) ;
#220 = DIRECTION ( 'NONE',  ( -3.491481338843133355E-15, 1.224646799147353207E-16, -1.000000000000000000 ) ) ;
#221 = EDGE_LOOP ( 'NONE', ( #151 ) ) ;
#222 = DIRECTION ( 'NONE',  ( 3.491481338843133355E-15, -1.223397583181748052E-16, 1.000000000000000000 ) ) ;
#223 = AXIS2_PLACEMENT_3D ( 'NONE', #98, #115, #185 ) ;
#224 = DIRECTION ( 'NONE',  ( 4.275831445896958607E-31, 1.000000000000000000, 1.224646799147353207E-16 ) ) ;
#225 = DIRECTION ( 'NONE',  ( 1.000000000000000000, 0.0000000000000000000, -3.496552006265751800E-15 ) ) ;
#226 = DIRECTION ( 'NONE',  ( -4.333952877319592045E-31, -1.000000000000000000, -1.223397583181748052E-16 ) ) ;
#227 = EDGE_CURVE ( 'NONE', #119, #119, #31, .T. ) ;
#228 = MECHANICAL_CONTEXT ( 'NONE', #4, 'mechanical' ) ;
#229 = DIRECTION ( 'NONE',  ( 1.000000000000000000, 0.0000000000000000000, 0.0000000000000000000 ) ) ;
#230 = APPROVAL_ROLE ( '' ) ;
#231 = LOCAL_TIME ( 7, 57, 7.000000000000000000, #160 ) ;
#232 = CARTESIAN_POINT ( 'NONE',  ( 1.745740669421566678E-13, 1.599999999999990319, 50.00000000000000000 ) ) ;
#233 = ORIENTED_EDGE ( 'NONE', *, *, #58, .F. ) ;
#234 = DIRECTION ( 'NONE',  ( 0.0000000000000000000, -1.000000000000000000, 0.0000000000000000000 ) ) ;
#235 = VERTEX_POINT ( 'NONE', #61 ) ;
#236 = AXIS2_PLACEMENT_3D ( 'NONE', #104, #212, #171 ) ;
#237 = EDGE_LOOP ( 'NONE', ( #165 ) ) ;
#238 = APPLICATION_CONTEXT ( 'configuration controlled 3d designs of mechanical parts and assemblies' ) ;
#239 = CARTESIAN_POINT ( 'NONE',  ( -4.275831445896957731E-31, 1.499759782661857608E-32, -1.224646799147353207E-16 ) ) ;
#240 = VERTEX_POINT ( 'NONE', #43 ) ;
#241 = DIRECTION ( 'NONE',  ( 3.491481338843133355E-15, -1.223397583181748052E-16, 1.000000000000000000 ) ) ;
#242 = UNCERTAINTY_MEASURE_WITH_UNIT (LENGTH_MEASURE( 1.000000000000000082E-05 ), #147, 'distance_accuracy_value', 'NONE');
#243 = CIRCLE ( 'NONE', #190, 1.000000000000001332 ) ;
ENDSEC;
END-ISO-10303-21;
