ISO-10303-21;
HEADER;
FILE_DESCRIPTION (( 'STEP AP203' ),
    '1' );
FILE_NAME ('47358.step',
    '2021-11-12T06:57:07',
    ( '' ),
    ( '' ),
    'SwSTEP 2.0',
    'SolidWorks 2019',
    '' );
FILE_SCHEMA (( 'CONFIG_CONTROL_DESIGN' ));
ENDSEC;

DATA;
#1 = EDGE_LOOP ( 'NONE', ( #242 ) ) ;
#2 = APPROVAL_PERSON_ORGANIZATION ( #117, #220, #63 ) ;
#3 = DIRECTION ( 'NONE',  ( -3.491481338843133355E-15, 1.224646799147353207E-16, -1.000000000000000000 ) ) ;
#4 = PRODUCT_RELATED_PRODUCT_CATEGORY ( 'detail', '', ( #189 ) ) ;
#5 = FACE_OUTER_BOUND ( 'NONE', #60, .T. ) ;
#6 = CARTESIAN_POINT ( 'NONE',  ( -4.731839565957903391E-32, 0.0000000000000000000, -1.355252715606880543E-17 ) ) ;
#7 = DIRECTION ( 'NONE',  ( 0.0000000000000000000, 1.000000000000000000, 0.0000000000000000000 ) ) ;
#8 = CARTESIAN_POINT ( 'NONE',  ( 1.047444401652939691E-14, -3.670192749545243169E-16, 2.999999999999999112 ) ) ;
#9 = DIRECTION ( 'NONE',  ( 0.0000000000000000000, 0.0000000000000000000, 1.000000000000000000 ) ) ;
#10 = CARTESIAN_POINT ( 'NONE',  ( 1.047444401652939691E-14, -0.7500000000000013323, 2.999999999999999112 ) ) ;
#11 = EDGE_CURVE ( 'NONE', #232, #232, #186, .T. ) ;
#12 = MECHANICAL_CONTEXT ( 'NONE', #50, 'mechanical' ) ;
#13 = PERSON_AND_ORGANIZATION ( #86, #241 ) ;
#14 = AXIS2_PLACEMENT_3D ( 'NONE', #132, #3, #74 ) ;
#15 = MANIFOLD_SOLID_BREP ( 'Corps-Déplacer/Copier1[2]', #18 ) ;
#16 = SHAPE_DEFINITION_REPRESENTATION ( #183, #191 ) ;
#17 = DATE_TIME_ROLE ( 'classification_date' ) ;
#18 = CLOSED_SHELL ( 'NONE', ( #206, #164, #61, #68 ) ) ;
#19 = DIRECTION ( 'NONE',  ( 4.275831445896958607E-31, 1.000000000000000000, 1.224646799147353207E-16 ) ) ;
#20 = FACE_OUTER_BOUND ( 'NONE', #148, .T. ) ;
#21 = DIRECTION ( 'NONE',  ( 4.275831445896958607E-31, 1.000000000000000000, 1.224646799147353207E-16 ) ) ;
#22 = CARTESIAN_POINT ( 'NONE',  ( 2.228241503965249553E-14, -4.137453937174813876E-16, 6.381937314617166734 ) ) ;
#23 = DIRECTION ( 'NONE',  ( 1.000000000000000000, 0.0000000000000000000, -3.487516988161706061E-15 ) ) ;
#24 = CARTESIAN_POINT ( 'NONE',  ( 2.228241503965249553E-14, 1.499999999999999112, 6.381937314617166734 ) ) ;
#25 = DIRECTION ( 'NONE',  ( 3.491481338843133355E-15, -0.0000000000000000000, 1.000000000000000000 ) ) ;
#26 = EDGE_CURVE ( 'NONE', #168, #168, #72, .T. ) ;
#27 = SECURITY_CLASSIFICATION ( '', '', #180 ) ;
#28 = PERSON_AND_ORGANIZATION ( #86, #241 ) ;
#29 = PERSON_AND_ORGANIZATION_ROLE ( 'creator' ) ;
#30 = LOCAL_TIME ( 7, 57, 7.000000000000000000, #45 ) ;
#31 = EDGE_LOOP ( 'NONE', ( #80 ) ) ;
#32 = APPROVAL ( #48, 'UNSPECIFIED' ) ;
#33 = CC_DESIGN_PERSON_AND_ORGANIZATION_ASSIGNMENT ( #140, #64, ( #189 ) ) ;
#34 = CARTESIAN_POINT ( 'NONE',  ( 0.0000000000000000000, 0.0000000000000000000, 0.0000000000000000000 ) ) ;
#35 = DIRECTION ( 'NONE',  ( 3.491481338843133355E-15, -0.0000000000000000000, 1.000000000000000000 ) ) ;
#36 = DIRECTION ( 'NONE',  ( 0.0000000000000000000, 1.000000000000000000, 0.0000000000000000000 ) ) ;
#37 = EDGE_LOOP ( 'NONE', ( #127 ) ) ;
#38 = FACE_BOUND ( 'NONE', #144, .T. ) ;
#39 = CIRCLE ( 'NONE', #149, 1.499999999999999556 ) ;
#40 = PERSON_AND_ORGANIZATION_ROLE ( 'creator' ) ;
#41 = CC_DESIGN_DATE_AND_TIME_ASSIGNMENT ( #103, #17, ( #27 ) ) ;
#42 = CARTESIAN_POINT ( 'NONE',  ( 1.316288464743861212E-13, 1.499999999999994449, 37.69999999999999574 ) ) ;
#43 = ORIENTED_EDGE ( 'NONE', *, *, #196, .F. ) ;
#44 = APPROVAL_ROLE ( '' ) ;
#45 = COORDINATED_UNIVERSAL_TIME_OFFSET ( 1, 0, .AHEAD. ) ;
#46 = ADVANCED_FACE ( 'NONE', ( #85, #228 ), #201, .F. ) ;
#47 = ORIENTED_EDGE ( 'NONE', *, *, #91, .F. ) ;
#48 = APPROVAL_STATUS ( 'not_yet_approved' ) ;
#49 = AXIS2_PLACEMENT_3D ( 'NONE', #6, #75, #54 ) ;
#50 = APPLICATION_CONTEXT ( 'configuration controlled 3d designs of mechanical parts and assemblies' ) ;
#51 = FACE_OUTER_BOUND ( 'NONE', #153, .T. ) ;
#52 = CARTESIAN_POINT ( 'NONE',  ( 3.491481338843133355E-16, 0.0000000000000000000, 0.1000000000000000056 ) ) ;
#53 = PLANE ( 'NONE',  #114 ) ;
#54 = DIRECTION ( 'NONE',  ( 1.000000000000000000, 0.0000000000000000000, -3.491481338843133355E-15 ) ) ;
#55 = CARTESIAN_POINT ( 'NONE',  ( 1.047444401652939691E-14, -0.7500000000000013323, 2.999999999999999112 ) ) ;
#56 = PERSON_AND_ORGANIZATION_ROLE ( 'classification_officer' ) ;
#57 = APPLICATION_CONTEXT ( 'configuration controlled 3d designs of mechanical parts and assemblies' ) ;
#58 = DIRECTION ( 'NONE',  ( 3.491481338843133355E-15, -1.223397583181748052E-16, 1.000000000000000000 ) ) ;
#59 = APPROVAL_STATUS ( 'not_yet_approved' ) ;
#60 = EDGE_LOOP ( 'NONE', ( #167 ) ) ;
#61 = ADVANCED_FACE ( 'NONE', ( #96, #225 ), #177, .T. ) ;
#62 = LOCAL_TIME ( 7, 57, 7.000000000000000000, #100 ) ;
#63 = APPROVAL_ROLE ( '' ) ;
#64 = PERSON_AND_ORGANIZATION_ROLE ( 'design_owner' ) ;
#65 = ORIENTED_EDGE ( 'NONE', *, *, #91, .T. ) ;
#66 = AXIS2_PLACEMENT_3D ( 'NONE', #213, #226, #19 ) ;
#67 = CARTESIAN_POINT ( 'NONE',  ( 1.047444401652940007E-14, 1.124819836996392658E-32, 3.000000000000000000 ) ) ;
#68 = ADVANCED_FACE ( 'NONE', ( #51 ), #229, .T. ) ;
#69 = CARTESIAN_POINT ( 'NONE',  ( 1.047444401652940007E-14, 1.124819836996392658E-32, 3.000000000000000000 ) ) ;
#70 = LOCAL_TIME ( 7, 57, 7.000000000000000000, #200 ) ;
#71 = DIRECTION ( 'NONE',  ( 3.491481338843133355E-15, -1.223397583181748052E-16, 1.000000000000000000 ) ) ;
#72 = CIRCLE ( 'NONE', #217, 0.7500000000000000000 ) ;
#73 = CARTESIAN_POINT ( 'NONE',  ( 1.047444401652939691E-14, -3.670192749545243169E-16, 2.999999999999999112 ) ) ;
#74 = DIRECTION ( 'NONE',  ( 0.0000000000000000000, 1.000000000000000000, 0.0000000000000000000 ) ) ;
#75 = DIRECTION ( 'NONE',  ( 3.491481338843133355E-15, -0.0000000000000000000, 1.000000000000000000 ) ) ;
#76 = CALENDAR_DATE ( 2021, 12, 11 ) ;
#77 = EDGE_LOOP ( 'NONE', ( #95 ) ) ;
#78 = CIRCLE ( 'NONE', #223, 1.499999999999998890 ) ;
#79 =( LENGTH_UNIT ( ) NAMED_UNIT ( * ) SI_UNIT ( .MILLI., .METRE. ) );
#80 = ORIENTED_EDGE ( 'NONE', *, *, #125, .F. ) ;
#81 = VERTEX_POINT ( 'NONE', #218 ) ;
#82 = DATE_AND_TIME ( #123, #193 ) ;
#83 = CALENDAR_DATE ( 2021, 12, 11 ) ;
#84 = CC_DESIGN_PERSON_AND_ORGANIZATION_ASSIGNMENT ( #28, #102, ( #204 ) ) ;
#85 = FACE_OUTER_BOUND ( 'NONE', #31, .T. ) ;
#86 = PERSON ( 'UNSPECIFIED', 'UNSPECIFIED', 'UNSPECIFIED', ('UNSPECIFIED'), ('UNSPECIFIED'), ('UNSPECIFIED') ) ;
#87 = EDGE_LOOP ( 'NONE', ( #150 ) ) ;
#88 = CC_DESIGN_APPROVAL ( #32, ( #27 ) ) ;
#89 = CIRCLE ( 'NONE', #194, 1.200000000000000844 ) ;
#90 = CIRCLE ( 'NONE', #49, 0.6499999999999998002 ) ;
#91 = EDGE_CURVE ( 'NONE', #184, #184, #89, .T. ) ;
#92 = DIRECTION ( 'NONE',  ( 0.0000000000000000000, -1.000000000000000000, 0.0000000000000000000 ) ) ;
#93 = DIRECTION ( 'NONE',  ( -3.491481338843133355E-15, 1.224646799147353207E-16, -1.000000000000000000 ) ) ;
#94 = ADVANCED_FACE ( 'NONE', ( #38, #5 ), #208, .T. ) ;
#95 = ORIENTED_EDGE ( 'NONE', *, *, #165, .F. ) ;
#96 = FACE_BOUND ( 'NONE', #87, .T. ) ;
#97 = ORIENTED_EDGE ( 'NONE', *, *, #165, .T. ) ;
#98 = DIRECTION ( 'NONE',  ( 3.491481338843133355E-15, -1.223397583181748052E-16, 1.000000000000000000 ) ) ;
#99 = FACE_OUTER_BOUND ( 'NONE', #1, .T. ) ;
#100 = COORDINATED_UNIVERSAL_TIME_OFFSET ( 1, 0, .AHEAD. ) ;
#101 = CARTESIAN_POINT ( 'NONE',  ( 0.0000000000000000000, 0.0000000000000000000, 0.0000000000000000000 ) ) ;
#102 = PERSON_AND_ORGANIZATION_ROLE ( 'design_supplier' ) ;
#103 = DATE_AND_TIME ( #83, #198 ) ;
#104 = EDGE_LOOP ( 'NONE', ( #122 ) ) ;
#105 = UNCERTAINTY_MEASURE_WITH_UNIT (LENGTH_MEASURE( 1.000000000000000082E-05 ), #79, 'distance_accuracy_value', 'NONE');
#106 = CARTESIAN_POINT ( 'NONE',  ( 1.047444401652939691E-14, 0.0000000000000000000, 2.999999999999999112 ) ) ;
#107 = CARTESIAN_POINT ( 'NONE',  ( 0.7500000000000003331, 0.0000000000000000000, 0.09999999999999738265 ) ) ;
#108 = APPROVAL_PERSON_ORGANIZATION ( #219, #32, #128 ) ;
#109 = AXIS2_PLACEMENT_3D ( 'NONE', #69, #113, #174 ) ;
#110 = FACE_OUTER_BOUND ( 'NONE', #221, .T. ) ;
#111 = FACE_OUTER_BOUND ( 'NONE', #77, .T. ) ;
#112 = DIRECTION ( 'NONE',  ( -3.491481338843133355E-15, 1.224646799147353207E-16, -1.000000000000000000 ) ) ;
#113 = DIRECTION ( 'NONE',  ( 3.491481338843133355E-15, -1.224646799147353207E-16, 1.000000000000000000 ) ) ;
#114 = AXIS2_PLACEMENT_3D ( 'NONE', #67, #207, #209 ) ;
#115 = DATE_AND_TIME ( #124, #62 ) ;
#116 = DIRECTION ( 'NONE',  ( 0.0000000000000000000, -1.000000000000000000, 0.0000000000000000000 ) ) ;
#117 = PERSON_AND_ORGANIZATION ( #86, #241 ) ;
#118 = EDGE_LOOP ( 'NONE', ( #212 ) ) ;
#119 = ADVANCED_FACE ( 'NONE', ( #111 ), #53, .F. ) ;
#120 = APPROVAL_DATE_TIME ( #178, #220 ) ;
#121 = CLOSED_SHELL ( 'NONE', ( #138, #94, #133, #46, #119 ) ) ;
#122 = ORIENTED_EDGE ( 'NONE', *, *, #125, .T. ) ;
#123 = CALENDAR_DATE ( 2021, 12, 11 ) ;
#124 = CALENDAR_DATE ( 2021, 12, 11 ) ;
#125 = EDGE_CURVE ( 'NONE', #199, #199, #39, .T. ) ;
#126 =( GEOMETRIC_REPRESENTATION_CONTEXT ( 3 ) GLOBAL_UNCERTAINTY_ASSIGNED_CONTEXT ( ( #105 ) ) GLOBAL_UNIT_ASSIGNED_CONTEXT ( ( #79, #236, #162 ) ) REPRESENTATION_CONTEXT ( 'NONE', 'WORKASPACE' ) );
#127 = ORIENTED_EDGE ( 'NONE', *, *, #26, .F. ) ;
#128 = APPROVAL_ROLE ( '' ) ;
#129 = CC_DESIGN_SECURITY_CLASSIFICATION ( #27, ( #204 ) ) ;
#130 = CC_DESIGN_PERSON_AND_ORGANIZATION_ASSIGNMENT ( #141, #29, ( #204 ) ) ;
#131 = CARTESIAN_POINT ( 'NONE',  ( 1.326762908760390423E-13, 8.998558695971082698E-33, 38.00000000000000000 ) ) ;
#132 = CARTESIAN_POINT ( 'NONE',  ( 1.316288464743861212E-13, -4.616918432785521081E-15, 37.69999999999999574 ) ) ;
#133 = ADVANCED_FACE ( 'NONE', ( #20 ), #136, .F. ) ;
#134 = DIRECTION ( 'NONE',  ( -3.491481338843133355E-15, 1.224646799147353207E-16, -1.000000000000000000 ) ) ;
#135 = CARTESIAN_POINT ( 'NONE',  ( 0.0000000000000000000, 0.0000000000000000000, 0.0000000000000000000 ) ) ;
#136 = PLANE ( 'NONE',  #181 ) ;
#137 = CARTESIAN_POINT ( 'NONE',  ( 1.326762908760390423E-13, 1.199999999999996181, 38.00000000000000000 ) ) ;
#138 = ADVANCED_FACE ( 'NONE', ( #110, #230 ), #190, .T. ) ;
#139 = CC_DESIGN_PERSON_AND_ORGANIZATION_ASSIGNMENT ( #158, #56, ( #27 ) ) ;
#140 = PERSON_AND_ORGANIZATION ( #86, #241 ) ;
#141 = PERSON_AND_ORGANIZATION ( #86, #241 ) ;
#142 = CC_DESIGN_DATE_AND_TIME_ASSIGNMENT ( #115, #215, ( #210 ) ) ;
#143 = VERTEX_POINT ( 'NONE', #42 ) ;
#144 = EDGE_LOOP ( 'NONE', ( #65 ) ) ;
#145 = APPROVAL_DATE_TIME ( #222, #32 ) ;
#146 = DIRECTION ( 'NONE',  ( 1.000000000000000000, 0.0000000000000000000, -3.487516988161706061E-15 ) ) ;
#147 = CIRCLE ( 'NONE', #233, 0.7500000000000009992 ) ;
#148 = EDGE_LOOP ( 'NONE', ( #47 ) ) ;
#149 = AXIS2_PLACEMENT_3D ( 'NONE', #22, #151, #7 ) ;
#150 = ORIENTED_EDGE ( 'NONE', *, *, #196, .T. ) ;
#151 = DIRECTION ( 'NONE',  ( 3.491481338843133355E-15, -1.223397583181748052E-16, 1.000000000000000000 ) ) ;
#152 = FACE_OUTER_BOUND ( 'NONE', #203, .T. ) ;
#153 = EDGE_LOOP ( 'NONE', ( #43 ) ) ;
#154 = CC_DESIGN_APPROVAL ( #239, ( #210 ) ) ;
#155 = DIRECTION ( 'NONE',  ( -4.350739367196980763E-31, -1.000000000000000000, -1.223397583181748052E-16 ) ) ;
#156 = DIRECTION ( 'NONE',  ( -3.491481338843133355E-15, 1.224646799147353207E-16, -1.000000000000000000 ) ) ;
#157 = DIRECTION ( 'NONE',  ( -4.271469831664863477E-31, -1.000000000000000000, -1.223397583181748052E-16 ) ) ;
#158 = PERSON_AND_ORGANIZATION ( #86, #241 ) ;
#159 = AXIS2_PLACEMENT_3D ( 'NONE', #135, #98, #157 ) ;
#160 = EDGE_CURVE ( 'NONE', #143, #143, #78, .T. ) ;
#161 = CARTESIAN_POINT ( 'NONE',  ( 3.491481338843133355E-16, 0.0000000000000000000, 0.1000000000000000056 ) ) ;
#162 =( NAMED_UNIT ( * ) SI_UNIT ( $, .STERADIAN. ) SOLID_ANGLE_UNIT ( ) );
#163 = DIRECTION ( 'NONE',  ( 1.000000000000000000, 0.0000000000000000000, 0.0000000000000000000 ) ) ;
#164 = ADVANCED_FACE ( 'NONE', ( #99 ), #195, .T. ) ;
#165 = EDGE_CURVE ( 'NONE', #238, #238, #147, .T. ) ;
#166 = CC_DESIGN_PERSON_AND_ORGANIZATION_ASSIGNMENT ( #13, #40, ( #210 ) ) ;
#167 = ORIENTED_EDGE ( 'NONE', *, *, #160, .F. ) ;
#168 = VERTEX_POINT ( 'NONE', #107 ) ;
#169 = CARTESIAN_POINT ( 'NONE',  ( 1.316288464743861212E-13, -4.616918432785521081E-15, 37.69999999999999574 ) ) ;
#170 = DIRECTION ( 'NONE',  ( 3.491481338843133355E-15, -1.223397583181748052E-16, 1.000000000000000000 ) ) ;
#171 = APPROVAL_PERSON_ORGANIZATION ( #235, #239, #44 ) ;
#172 = AXIS2_PLACEMENT_3D ( 'NONE', #106, #71, #155 ) ;
#173 = DIRECTION ( 'NONE',  ( 4.275831445896958607E-31, 1.000000000000000000, 1.224646799147353207E-16 ) ) ;
#174 = DIRECTION ( 'NONE',  ( -4.275831445896958607E-31, -1.000000000000000000, -1.224646799147353207E-16 ) ) ;
#175 = MANIFOLD_SOLID_BREP ( 'Corps-Déplacer/Copier1[1]', #121 ) ;
#176 = APPROVAL_DATE_TIME ( #82, #239 ) ;
#177 = CONICAL_SURFACE ( 'NONE', #205, 0.7500000000000000000, 0.7853981633974495002 ) ;
#178 = DATE_AND_TIME ( #76, #70 ) ;
#179 = COORDINATED_UNIVERSAL_TIME_OFFSET ( 1, 0, .AHEAD. ) ;
#180 = SECURITY_CLASSIFICATION_LEVEL ( 'unclassified' ) ;
#181 = AXIS2_PLACEMENT_3D ( 'NONE', #131, #93, #173 ) ;
#182 = AXIS2_PLACEMENT_3D ( 'NONE', #73, #58, #116 ) ;
#183 = PRODUCT_DEFINITION_SHAPE ( 'NONE', 'NONE',  #210 ) ;
#184 = VERTEX_POINT ( 'NONE', #137 ) ;
#185 = AXIS2_PLACEMENT_3D ( 'NONE', #101, #9, #163 ) ;
#186 = CIRCLE ( 'NONE', #182, 0.7500000000000009992 ) ;
#187 = AXIS2_PLACEMENT_3D ( 'NONE', #34, #156, #21 ) ;
#188 = CARTESIAN_POINT ( 'NONE',  ( 1.326762908760390423E-13, -4.653657836759941941E-15, 38.00000000000000000 ) ) ;
#189 = PRODUCT ( '47358', '47358', '', ( #12 ) ) ;
#190 = CYLINDRICAL_SURFACE ( 'NONE', #187, 1.499999999999999556 ) ;
#191 = ADVANCED_BREP_SHAPE_REPRESENTATION ( '47358', ( #175, #15, #185 ), #126 ) ;
#192 = CYLINDRICAL_SURFACE ( 'NONE', #159, 0.7500000000000004441 ) ;
#193 = LOCAL_TIME ( 7, 57, 7.000000000000000000, #179 ) ;
#194 = AXIS2_PLACEMENT_3D ( 'NONE', #188, #112, #36 ) ;
#195 = PLANE ( 'NONE',  #109 ) ;
#196 = EDGE_CURVE ( 'NONE', #81, #81, #90, .T. ) ;
#197 = APPLICATION_PROTOCOL_DEFINITION ( 'international standard', 'config_control_design', 1994, #50 ) ;
#198 = LOCAL_TIME ( 7, 57, 7.000000000000000000, #234 ) ;
#199 = VERTEX_POINT ( 'NONE', #24 ) ;
#200 = COORDINATED_UNIVERSAL_TIME_OFFSET ( 1, 0, .AHEAD. ) ;
#201 = TOROIDAL_SURFACE ( 'NONE', #172, 8.750000000000000000, 8.000000000000000000 ) ;
#202 = ORIENTED_EDGE ( 'NONE', *, *, #26, .T. ) ;
#203 = EDGE_LOOP ( 'NONE', ( #202 ) ) ;
#204 = PRODUCT_DEFINITION_FORMATION_WITH_SPECIFIED_SOURCE ( 'ANY', '', #189, .NOT_KNOWN. ) ;
#205 = AXIS2_PLACEMENT_3D ( 'NONE', #52, #35, #23 ) ;
#206 = ADVANCED_FACE ( 'NONE', ( #214, #152 ), #192, .T. ) ;
#207 = DIRECTION ( 'NONE',  ( 3.491481338843133355E-15, -1.224646799147353207E-16, 1.000000000000000000 ) ) ;
#208 = CONICAL_SURFACE ( 'NONE', #14, 1.499999999999998890, 0.7853981633974425058 ) ;
#209 = DIRECTION ( 'NONE',  ( -4.275831445896958607E-31, -1.000000000000000000, -1.224646799147353207E-16 ) ) ;
#210 = PRODUCT_DEFINITION ( 'UNKNOWN', '', #204, #243 ) ;
#211 = DIRECTION ( 'NONE',  ( 0.0000000000000000000, 1.000000000000000000, 0.0000000000000000000 ) ) ;
#212 = ORIENTED_EDGE ( 'NONE', *, *, #11, .F. ) ;
#213 = CARTESIAN_POINT ( 'NONE',  ( -3.206873584422719393E-31, 1.124819836996393206E-32, -9.184850993605149670E-17 ) ) ;
#214 = FACE_OUTER_BOUND ( 'NONE', #118, .T. ) ;
#215 = DATE_TIME_ROLE ( 'creation_date' ) ;
#216 = APPLICATION_PROTOCOL_DEFINITION ( 'international standard', 'config_control_design', 1994, #57 ) ;
#217 = AXIS2_PLACEMENT_3D ( 'NONE', #161, #25, #146 ) ;
#218 = CARTESIAN_POINT ( 'NONE',  ( 0.6499999999999998002, 0.0000000000000000000, -2.283015397404104697E-15 ) ) ;
#219 = PERSON_AND_ORGANIZATION ( #86, #241 ) ;
#220 = APPROVAL ( #237, 'UNSPECIFIED' ) ;
#221 = EDGE_LOOP ( 'NONE', ( #227 ) ) ;
#222 = DATE_AND_TIME ( #240, #30 ) ;
#223 = AXIS2_PLACEMENT_3D ( 'NONE', #169, #134, #211 ) ;
#224 = CC_DESIGN_APPROVAL ( #220, ( #204 ) ) ;
#225 = FACE_OUTER_BOUND ( 'NONE', #37, .T. ) ;
#226 = DIRECTION ( 'NONE',  ( -3.491481338843133355E-15, 1.224646799147353207E-16, -1.000000000000000000 ) ) ;
#227 = ORIENTED_EDGE ( 'NONE', *, *, #160, .T. ) ;
#228 = FACE_OUTER_BOUND ( 'NONE', #231, .T. ) ;
#229 = PLANE ( 'NONE',  #66 ) ;
#230 = FACE_OUTER_BOUND ( 'NONE', #104, .T. ) ;
#231 = EDGE_LOOP ( 'NONE', ( #97 ) ) ;
#232 = VERTEX_POINT ( 'NONE', #55 ) ;
#233 = AXIS2_PLACEMENT_3D ( 'NONE', #8, #170, #92 ) ;
#234 = COORDINATED_UNIVERSAL_TIME_OFFSET ( 1, 0, .AHEAD. ) ;
#235 = PERSON_AND_ORGANIZATION ( #86, #241 ) ;
#236 =( NAMED_UNIT ( * ) PLANE_ANGLE_UNIT ( ) SI_UNIT ( $, .RADIAN. ) );
#237 = APPROVAL_STATUS ( 'not_yet_approved' ) ;
#238 = VERTEX_POINT ( 'NONE', #10 ) ;
#239 = APPROVAL ( #59, 'UNSPECIFIED' ) ;
#240 = CALENDAR_DATE ( 2021, 12, 11 ) ;
#241 = ORGANIZATION ( 'UNSPECIFIED', 'UNSPECIFIED', '' ) ;
#242 = ORIENTED_EDGE ( 'NONE', *, *, #11, .T. ) ;
#243 = DESIGN_CONTEXT ( 'detailed design', #57, 'design' ) ;
ENDSEC;
END-ISO-10303-21;
