ISO-10303-21;
HEADER;
FILE_DESCRIPTION (( 'STEP AP203' ),
    '1' );
FILE_NAME ('47101.step',
    '2021-09-21T07:37:59',
    ( '' ),
    ( '' ),
    'SwSTEP 2.0',
    'SolidWorks 2019',
    '' );
FILE_SCHEMA (( 'CONFIG_CONTROL_DESIGN' ));
ENDSEC;

DATA;
#1 = APPROVAL_DATE_TIME ( #2, #172 ) ;
#2 = DATE_AND_TIME ( #283, #273 ) ;
#3 = DIRECTION ( 'NONE',  ( -3.491481338843133355E-15, 1.224646799147353454E-16, -1.000000000000000000 ) ) ;
#4 = ORIENTED_EDGE ( 'NONE', *, *, #93, .F. ) ;
#5 = FACE_OUTER_BOUND ( 'NONE', #68, .T. ) ;
#6 = EDGE_CURVE ( 'NONE', #155, #44, #251, .T. ) ;
#7 = ORIENTED_EDGE ( 'NONE', *, *, #179, .T. ) ;
#8 = PRODUCT_DEFINITION_FORMATION_WITH_SPECIFIED_SOURCE ( 'ANY', '', #224, .NOT_KNOWN. ) ;
#9 = DESIGN_CONTEXT ( 'detailed design', #66, 'design' ) ;
#10 = ORIENTED_EDGE ( 'NONE', *, *, #179, .F. ) ;
#11 = VERTEX_POINT ( 'NONE', #225 ) ;
#12 = EDGE_CURVE ( 'NONE', #11, #189, #116, .T. ) ;
#13 = EDGE_LOOP ( 'NONE', ( #200, #239, #114 ) ) ;
#14 = AXIS2_PLACEMENT_3D ( 'NONE', #60, #110, #234 ) ;
#15 = DIRECTION ( 'NONE',  ( -3.491481338843133355E-15, 1.224646799147353454E-16, -1.000000000000000000 ) ) ;
#16 = VECTOR ( 'NONE', #136, 1000.000000000000000 ) ;
#17 = CARTESIAN_POINT ( 'NONE',  ( 1.114884729210192245E-13, -0.7999999999999960476, 32.00000000000000000 ) ) ;
#18 = ADVANCED_FACE ( 'NONE', ( #153 ), #174, .T. ) ;
#19 = CIRCLE ( 'NONE', #83, 0.9999999999999963363 ) ;
#20 = APPLICATION_PROTOCOL_DEFINITION ( 'international standard', 'config_control_design', 1994, #66 ) ;
#21 = COORDINATED_UNIVERSAL_TIME_OFFSET ( 1, 0, .AHEAD. ) ;
#22 = ORIENTED_EDGE ( 'NONE', *, *, #35, .T. ) ;
#23 = CARTESIAN_POINT ( 'NONE',  ( 5.738275863694219791E-14, -0.9999999999999965583, 1.000000000000006883 ) ) ;
#24 = FACE_OUTER_BOUND ( 'NONE', #176, .T. ) ;
#25 = CARTESIAN_POINT ( 'NONE',  ( 1.110291065752116659E-13, -3.894376821288585127E-15, 31.80000000000000782 ) ) ;
#26 = AXIS2_PLACEMENT_3D ( 'NONE', #275, #245, #221 ) ;
#27 = ORIENTED_EDGE ( 'NONE', *, *, #274, .F. ) ;
#28 = DIRECTION ( 'NONE',  ( -3.491481338843133355E-15, 1.224646799147353454E-16, -1.000000000000000000 ) ) ;
#29 = CC_DESIGN_APPROVAL ( #166, ( #262 ) ) ;
#30 = DIRECTION ( 'NONE',  ( 0.0000000000000000000, 1.000000000000000000, 0.0000000000000000000 ) ) ;
#31 = ADVANCED_FACE ( 'NONE', ( #113 ), #157, .T. ) ;
#32 = CARTESIAN_POINT ( 'NONE',  ( 3.491481338843158993E-15, 0.9999999999999961142, 1.000000000000007327 ) ) ;
#33 = CIRCLE ( 'NONE', #261, 0.9999999999999963363 ) ;
#34 = CARTESIAN_POINT ( 'NONE',  ( 1.117274028429802674E-13, -3.918869757271531052E-15, 32.00000000000000000 ) ) ;
#35 = EDGE_CURVE ( 'NONE', #44, #196, #19, .T. ) ;
#36 = LINE ( 'NONE', #237, #267 ) ;
#37 = PERSON_AND_ORGANIZATION ( #77, #80 ) ;
#38 = CLOSED_SHELL ( 'NONE', ( #286, #67, #31 ) ) ;
#39 = DIRECTION ( 'NONE',  ( 3.491481338843133355E-15, -1.224646799147353454E-16, 1.000000000000000000 ) ) ;
#40 = ORIENTED_EDGE ( 'NONE', *, *, #215, .F. ) ;
#41 = CARTESIAN_POINT ( 'NONE',  ( 0.0000000000000000000, 0.0000000000000000000, 0.0000000000000000000 ) ) ;
#42 = DATE_AND_TIME ( #147, #55 ) ;
#43 = COORDINATED_UNIVERSAL_TIME_OFFSET ( 1, 0, .AHEAD. ) ;
#44 = VERTEX_POINT ( 'NONE', #75 ) ;
#45 = PRODUCT_DEFINITION ( 'UNKNOWN', '', #8, #9 ) ;
#46 = PERSON_AND_ORGANIZATION ( #77, #80 ) ;
#47 = CARTESIAN_POINT ( 'NONE',  ( 0.0000000000000000000, 0.0000000000000000000, 0.0000000000000000000 ) ) ;
#48 = ORIENTED_EDGE ( 'NONE', *, *, #202, .F. ) ;
#49 = ORIENTED_EDGE ( 'NONE', *, *, #12, .T. ) ;
#50 = CARTESIAN_POINT ( 'NONE',  ( 3.613946018757892958E-15, 0.9999999999999961142, 1.000000000000007327 ) ) ;
#51 = PRODUCT_DEFINITION_SHAPE ( 'NONE', 'NONE',  #45 ) ;
#52 = CARTESIAN_POINT ( 'NONE',  ( 0.0000000000000000000, 0.0000000000000000000, 0.0000000000000000000 ) ) ;
#53 = LOCAL_TIME ( 9, 37, 59.00000000000000000, #43 ) ;
#54 = LINE ( 'NONE', #139, #228 ) ;
#55 = LOCAL_TIME ( 9, 37, 59.00000000000000000, #21 ) ;
#56 = CC_DESIGN_DATE_AND_TIME_ASSIGNMENT ( #260, #101, ( #45 ) ) ;
#57 = CARTESIAN_POINT ( 'NONE',  ( 1.110291065752116659E-13, -3.894376821288585127E-15, 31.80000000000000782 ) ) ;
#58 = FACE_OUTER_BOUND ( 'NONE', #109, .T. ) ;
#59 = COORDINATED_UNIVERSAL_TIME_OFFSET ( 1, 0, .AHEAD. ) ;
#60 = CARTESIAN_POINT ( 'NONE',  ( 3.491481338843162938E-15, -3.252606517456538151E-15, 1.000000000000008438 ) ) ;
#61 = ORIENTED_EDGE ( 'NONE', *, *, #127, .F. ) ;
#62 = APPROVAL_STATUS ( 'not_yet_approved' ) ;
#63 = CC_DESIGN_PERSON_AND_ORGANIZATION_ASSIGNMENT ( #169, #247, ( #8 ) ) ;
#64 = APPROVAL_DATE_TIME ( #42, #269 ) ;
#65 = APPROVAL_ROLE ( '' ) ;
#66 = APPLICATION_CONTEXT ( 'configuration controlled 3d designs of mechanical parts and assemblies' ) ;
#67 = ADVANCED_FACE ( 'NONE', ( #95 ), #278, .T. ) ;
#68 = EDGE_LOOP ( 'NONE', ( #194, #219 ) ) ;
#69 = CARTESIAN_POINT ( 'NONE',  ( 3.491481338843158204E-15, -1.224646799147362328E-16, 1.000000000000007105 ) ) ;
#70 = DIRECTION ( 'NONE',  ( -3.491481338843133355E-15, 1.224646799147353454E-16, -1.000000000000000000 ) ) ;
#71 = EDGE_LOOP ( 'NONE', ( #61, #270, #133, #10 ) ) ;
#72 = FACE_OUTER_BOUND ( 'NONE', #271, .T. ) ;
#73 = DIRECTION ( 'NONE',  ( -3.491481338843133355E-15, 1.224646799147353454E-16, -1.000000000000000000 ) ) ;
#74 = CC_DESIGN_PERSON_AND_ORGANIZATION_ASSIGNMENT ( #37, #81, ( #262 ) ) ;
#75 = CARTESIAN_POINT ( 'NONE',  ( 3.613946018757892958E-15, 0.9999999999999961142, 1.000000000000007327 ) ) ;
#76 = DIRECTION ( 'NONE',  ( 7.703719777548971438E-31, 1.000000000000000000, 2.168404344971016757E-16 ) ) ;
#77 = PERSON ( 'UNSPECIFIED', 'UNSPECIFIED', 'UNSPECIFIED', ('UNSPECIFIED'), ('UNSPECIFIED'), ('UNSPECIFIED') ) ;
#78 = DIRECTION ( 'NONE',  ( 7.703719777548971438E-31, 1.000000000000000000, 2.168404344971016757E-16 ) ) ;
#79 = FACE_OUTER_BOUND ( 'NONE', #217, .T. ) ;
#80 = ORGANIZATION ( 'UNSPECIFIED', 'UNSPECIFIED', '' ) ;
#81 = PERSON_AND_ORGANIZATION_ROLE ( 'classification_officer' ) ;
#82 = APPROVAL_DATE_TIME ( #104, #166 ) ;
#83 = AXIS2_PLACEMENT_3D ( 'NONE', #69, #73, #183 ) ;
#84 = EDGE_CURVE ( 'NONE', #173, #175, #232, .T. ) ;
#85 = PERSON_AND_ORGANIZATION ( #77, #80 ) ;
#86 = CARTESIAN_POINT ( 'NONE',  ( 3.491481338843158204E-15, -1.224646799147362328E-16, 1.000000000000007105 ) ) ;
#87 = CC_DESIGN_APPROVAL ( #269, ( #45 ) ) ;
#88 = DIRECTION ( 'NONE',  ( 0.0000000000000000000, 1.000000000000000000, 0.0000000000000000000 ) ) ;
#89 = EDGE_LOOP ( 'NONE', ( #4, #115 ) ) ;
#90 = ORIENTED_EDGE ( 'NONE', *, *, #6, .T. ) ;
#91 = CIRCLE ( 'NONE', #222, 0.7999999999999921618 ) ;
#92 = ORIENTED_EDGE ( 'NONE', *, *, #84, .T. ) ;
#93 = EDGE_CURVE ( 'NONE', #196, #44, #107, .T. ) ;
#94 = CARTESIAN_POINT ( 'NONE',  ( 1.118253745869120605E-13, -0.7999999999999960476, 32.00000000000000000 ) ) ;
#95 = FACE_OUTER_BOUND ( 'NONE', #13, .T. ) ;
#96 = CONICAL_SURFACE ( 'NONE', #258, 0.9999999999999963363, 0.7853981633974428389 ) ;
#97 = CARTESIAN_POINT ( 'NONE',  ( 3.491481338843158204E-15, -1.224646799147362328E-16, 1.000000000000007105 ) ) ;
#98 = DIRECTION ( 'NONE',  ( -3.491481338843133355E-15, 1.224646799147353454E-16, -1.000000000000000000 ) ) ;
#99 = AXIS2_PLACEMENT_3D ( 'NONE', #122, #98, #76 ) ;
#100 = EDGE_CURVE ( 'NONE', #223, #197, #272, .T. ) ;
#101 = DATE_TIME_ROLE ( 'creation_date' ) ;
#102 = CARTESIAN_POINT ( 'NONE',  ( 1.117274028429802674E-13, -3.918869757271531052E-15, 32.00000000000000000 ) ) ;
#103 = ORIENTED_EDGE ( 'NONE', *, *, #263, .F. ) ;
#104 = DATE_AND_TIME ( #108, #53 ) ;
#105 = ADVANCED_FACE ( 'NONE', ( #277 ), #185, .T. ) ;
#106 = PERSON_AND_ORGANIZATION ( #77, #80 ) ;
#107 = CIRCLE ( 'NONE', #205, 0.9999999999999963363 ) ;
#108 = CALENDAR_DATE ( 2021, 21, 9 ) ;
#109 = EDGE_LOOP ( 'NONE', ( #92, #111, #158, #48 ) ) ;
#110 = DIRECTION ( 'NONE',  ( 3.491481338843133355E-15, -1.224646799147353454E-16, 1.000000000000000000 ) ) ;
#111 = ORIENTED_EDGE ( 'NONE', *, *, #127, .T. ) ;
#112 = APPROVAL_PERSON_ORGANIZATION ( #46, #172, #287 ) ;
#113 = FACE_OUTER_BOUND ( 'NONE', #89, .T. ) ;
#114 = ORIENTED_EDGE ( 'NONE', *, *, #93, .T. ) ;
#115 = ORIENTED_EDGE ( 'NONE', *, *, #35, .F. ) ;
#116 = CIRCLE ( 'NONE', #168, 0.9999999999999926725 ) ;
#117 = DIRECTION ( 'NONE',  ( 2.468850131082278754E-15, -0.7071067811865437980, 0.7071067811865513475 ) ) ;
#118 = CARTESIAN_POINT ( 'NONE',  ( 5.738275863694209693E-14, -0.9999999999999965583, 31.80000000000000782 ) ) ;
#119 = LINE ( 'NONE', #204, #177 ) ;
#120 = AXIS2_PLACEMENT_3D ( 'NONE', #161, #279, #226 ) ;
#121 = APPROVAL_PERSON_ORGANIZATION ( #85, #166, #65 ) ;
#122 = CARTESIAN_POINT ( 'NONE',  ( 3.491481338843158204E-15, -1.224646799147362328E-16, 1.000000000000007105 ) ) ;
#123 = CARTESIAN_POINT ( 'NONE',  ( 3.491481338843158204E-15, -1.224646799147362328E-16, 1.000000000000007105 ) ) ;
#124 = CC_DESIGN_PERSON_AND_ORGANIZATION_ASSIGNMENT ( #285, #171, ( #8 ) ) ;
#125 = AXIS2_PLACEMENT_3D ( 'NONE', #97, #254, #207 ) ;
#126 = DATE_TIME_ROLE ( 'classification_date' ) ;
#127 = EDGE_CURVE ( 'NONE', #175, #189, #164, .T. ) ;
#128 = ORIENTED_EDGE ( 'NONE', *, *, #274, .T. ) ;
#129 = AXIS2_PLACEMENT_3D ( 'NONE', #57, #257, #30 ) ;
#130 = APPLICATION_PROTOCOL_DEFINITION ( 'international standard', 'config_control_design', 1994, #209 ) ;
#131 = DIRECTION ( 'NONE',  ( 4.275831445896960358E-31, 1.000000000000000000, 1.224646799147353454E-16 ) ) ;
#132 = ORIENTED_EDGE ( 'NONE', *, *, #100, .F. ) ;
#133 = ORIENTED_EDGE ( 'NONE', *, *, #202, .T. ) ;
#134 = AXIS2_PLACEMENT_3D ( 'NONE', #41, #192, #154 ) ;
#135 = LOCAL_TIME ( 9, 37, 59.00000000000000000, #170 ) ;
#136 = DIRECTION ( 'NONE',  ( 2.555445736705828206E-15, 0.7071067811865435759, 0.7071067811865515695 ) ) ;
#137 = DIRECTION ( 'NONE',  ( 4.275831445896959482E-31, 1.000000000000000000, 1.224646799147353454E-16 ) ) ;
#138 = AXIS2_PLACEMENT_3D ( 'NONE', #34, #252, #141 ) ;
#139 = CARTESIAN_POINT ( 'NONE',  ( 3.491481338843157416E-15, -0.9999999999999965583, 1.000000000000006883 ) ) ;
#140 = CARTESIAN_POINT ( 'NONE',  ( 1.117274028429802674E-13, -3.918869757271531052E-15, 32.00000000000000000 ) ) ;
#141 = DIRECTION ( 'NONE',  ( 0.0000000000000000000, 1.000000000000000000, 0.0000000000000000000 ) ) ;
#142 = CARTESIAN_POINT ( 'NONE',  ( 3.491481338843158204E-15, -1.224646799147362328E-16, 1.000000000000007105 ) ) ;
#143 = MANIFOLD_SOLID_BREP ( 'Corps-Déplacer/Copier1[1]', #246 ) ;
#144 = DIRECTION ( 'NONE',  ( -3.491481338843133355E-15, 1.224646799147353454E-16, -1.000000000000000000 ) ) ;
#145 = EDGE_CURVE ( 'NONE', #155, #196, #54, .T. ) ;
#146 = DIRECTION ( 'NONE',  ( -2.468850131082211701E-15, 0.7071067811865631159, -0.7071067811865320296 ) ) ;
#147 = CALENDAR_DATE ( 2021, 21, 9 ) ;
#148 = CC_DESIGN_SECURITY_CLASSIFICATION ( #262, ( #8 ) ) ;
#149 = DIRECTION ( 'NONE',  ( 0.0000000000000000000, 1.000000000000000000, 0.0000000000000000000 ) ) ;
#150 = DATE_AND_TIME ( #244, #135 ) ;
#151 = CONICAL_SURFACE ( 'NONE', #181, 0.7999999999999921618, 0.7853981633974700394 ) ;
#152 = SHAPE_DEFINITION_REPRESENTATION ( #51, #190 ) ;
#153 = FACE_OUTER_BOUND ( 'NONE', #266, .T. ) ;
#154 = DIRECTION ( 'NONE',  ( 1.000000000000000000, 0.0000000000000000000, 0.0000000000000000000 ) ) ;
#155 = VERTEX_POINT ( 'NONE', #52 ) ;
#156 =( NAMED_UNIT ( * ) SI_UNIT ( $, .STERADIAN. ) SOLID_ANGLE_UNIT ( ) );
#157 = PLANE ( 'NONE',  #26 ) ;
#158 = ORIENTED_EDGE ( 'NONE', *, *, #12, .F. ) ;
#159 = CIRCLE ( 'NONE', #129, 0.9999999999999926725 ) ;
#160 = ORIENTED_EDGE ( 'NONE', *, *, #198, .T. ) ;
#161 = CARTESIAN_POINT ( 'NONE',  ( 1.117274028429802674E-13, -3.918869757271531052E-15, 32.00000000000000000 ) ) ;
#162 = APPROVAL_PERSON_ORGANIZATION ( #212, #269, #188 ) ;
#163 = ADVANCED_FACE ( 'NONE', ( #72 ), #206, .F. ) ;
#164 = LINE ( 'NONE', #94, #250 ) ;
#165 = CARTESIAN_POINT ( 'NONE',  ( 1.117274028429802674E-13, 0.7999999999999882760, 32.00000000000000000 ) ) ;
#166 = APPROVAL ( #264, 'UNSPECIFIED' ) ;
#167 = ORIENTED_EDGE ( 'NONE', *, *, #145, .F. ) ;
#168 = AXIS2_PLACEMENT_3D ( 'NONE', #25, #70, #88 ) ;
#169 = PERSON_AND_ORGANIZATION ( #77, #80 ) ;
#170 = COORDINATED_UNIVERSAL_TIME_OFFSET ( 1, 0, .AHEAD. ) ;
#171 = PERSON_AND_ORGANIZATION_ROLE ( 'design_supplier' ) ;
#172 = APPROVAL ( #186, 'UNSPECIFIED' ) ;
#173 = VERTEX_POINT ( 'NONE', #165 ) ;
#174 = CYLINDRICAL_SURFACE ( 'NONE', #191, 0.9999999999999943379 ) ;
#175 = VERTEX_POINT ( 'NONE', #17 ) ;
#176 = EDGE_LOOP ( 'NONE', ( #167, #90, #22 ) ) ;
#177 = VECTOR ( 'NONE', #15, 1000.000000000000000 ) ;
#178 = DIRECTION ( 'NONE',  ( 4.275831445896960358E-31, 1.000000000000000000, 1.224646799147353454E-16 ) ) ;
#179 = EDGE_CURVE ( 'NONE', #189, #11, #159, .T. ) ;
#180 = VECTOR ( 'NONE', #146, 999.9999999999998863 ) ;
#181 = AXIS2_PLACEMENT_3D ( 'NONE', #140, #229, #233 ) ;
#182 = ADVANCED_FACE ( 'NONE', ( #58 ), #151, .T. ) ;
#183 = DIRECTION ( 'NONE',  ( 7.703719777548971438E-31, 1.000000000000000000, 2.168404344971016757E-16 ) ) ;
#184 =( LENGTH_UNIT ( ) NAMED_UNIT ( * ) SI_UNIT ( .MILLI., .METRE. ) );
#185 = CONICAL_SURFACE ( 'NONE', #138, 0.7999999999999921618, 0.7853981633974700394 ) ;
#186 = APPROVAL_STATUS ( 'not_yet_approved' ) ;
#187 = CYLINDRICAL_SURFACE ( 'NONE', #214, 0.9999999999999943379 ) ;
#188 = APPROVAL_ROLE ( '' ) ;
#189 = VERTEX_POINT ( 'NONE', #118 ) ;
#190 = ADVANCED_BREP_SHAPE_REPRESENTATION ( '47101', ( #143, #242, #134 ), #238 ) ;
#191 = AXIS2_PLACEMENT_3D ( 'NONE', #268, #28, #178 ) ;
#192 = DIRECTION ( 'NONE',  ( 0.0000000000000000000, 0.0000000000000000000, 1.000000000000000000 ) ) ;
#193 = CC_DESIGN_PERSON_AND_ORGANIZATION_ASSIGNMENT ( #241, #240, ( #224 ) ) ;
#194 = ORIENTED_EDGE ( 'NONE', *, *, #215, .T. ) ;
#195 = DIRECTION ( 'NONE',  ( -7.703719777548971438E-31, -1.000000000000000000, -2.168404344971016757E-16 ) ) ;
#196 = VERTEX_POINT ( 'NONE', #230 ) ;
#197 = VERTEX_POINT ( 'NONE', #32 ) ;
#198 = EDGE_CURVE ( 'NONE', #11, #197, #119, .T. ) ;
#199 = ORIENTED_EDGE ( 'NONE', *, *, #84, .F. ) ;
#200 = ORIENTED_EDGE ( 'NONE', *, *, #6, .F. ) ;
#201 = DIRECTION ( 'NONE',  ( -3.491481338843133355E-15, 1.224646799147353454E-16, -1.000000000000000000 ) ) ;
#202 = EDGE_CURVE ( 'NONE', #173, #11, #256, .T. ) ;
#203 = DIRECTION ( 'NONE',  ( -3.491481338843133355E-15, 1.224646799147353454E-16, -1.000000000000000000 ) ) ;
#204 = CARTESIAN_POINT ( 'NONE',  ( 4.275831445896935835E-31, 0.9999999999999943379, 1.224646799147346551E-16 ) ) ;
#205 = AXIS2_PLACEMENT_3D ( 'NONE', #142, #203, #78 ) ;
#206 = PLANE ( 'NONE',  #210 ) ;
#207 = DIRECTION ( 'NONE',  ( -7.703719777548971438E-31, -1.000000000000000000, -2.168404344971016757E-16 ) ) ;
#208 = PLANE ( 'NONE',  #14 ) ;
#209 = APPLICATION_CONTEXT ( 'configuration controlled 3d designs of mechanical parts and assemblies' ) ;
#210 = AXIS2_PLACEMENT_3D ( 'NONE', #281, #201, #137 ) ;
#211 = PERSON_AND_ORGANIZATION_ROLE ( 'creator' ) ;
#212 = PERSON_AND_ORGANIZATION ( #77, #80 ) ;
#213 = MECHANICAL_CONTEXT ( 'NONE', #209, 'mechanical' ) ;
#214 = AXIS2_PLACEMENT_3D ( 'NONE', #47, #144, #131 ) ;
#215 = EDGE_CURVE ( 'NONE', #197, #223, #33, .T. ) ;
#216 = COORDINATED_UNIVERSAL_TIME_OFFSET ( 1, 0, .AHEAD. ) ;
#217 = EDGE_LOOP ( 'NONE', ( #27, #7, #160, #132 ) ) ;
#218 = CC_DESIGN_DATE_AND_TIME_ASSIGNMENT ( #150, #126, ( #262 ) ) ;
#219 = ORIENTED_EDGE ( 'NONE', *, *, #100, .T. ) ;
#220 = DIRECTION ( 'NONE',  ( 7.703719777548971438E-31, 1.000000000000000000, 2.168404344971016757E-16 ) ) ;
#221 = DIRECTION ( 'NONE',  ( -4.275831445896959482E-31, -1.000000000000000000, -1.224646799147353454E-16 ) ) ;
#222 = AXIS2_PLACEMENT_3D ( 'NONE', #102, #3, #149 ) ;
#223 = VERTEX_POINT ( 'NONE', #23 ) ;
#224 = PRODUCT ( '47101', '47101', '', ( #213 ) ) ;
#225 = CARTESIAN_POINT ( 'NONE',  ( 1.110291065752116659E-13, 0.9999999999999887867, 31.80000000000000782 ) ) ;
#226 = DIRECTION ( 'NONE',  ( 0.0000000000000000000, 1.000000000000000000, 0.0000000000000000000 ) ) ;
#227 = CC_DESIGN_PERSON_AND_ORGANIZATION_ASSIGNMENT ( #106, #211, ( #45 ) ) ;
#228 = VECTOR ( 'NONE', #117, 1000.000000000000000 ) ;
#229 = DIRECTION ( 'NONE',  ( -3.491481338843133355E-15, 1.224646799147353454E-16, -1.000000000000000000 ) ) ;
#230 = CARTESIAN_POINT ( 'NONE',  ( 3.491481338843157416E-15, -0.9999999999999965583, 1.000000000000006883 ) ) ;
#231 = CARTESIAN_POINT ( 'NONE',  ( 1.117274028429802674E-13, 0.7999999999999882760, 32.00000000000000000 ) ) ;
#232 = CIRCLE ( 'NONE', #120, 0.7999999999999921618 ) ;
#233 = DIRECTION ( 'NONE',  ( 0.0000000000000000000, 1.000000000000000000, 0.0000000000000000000 ) ) ;
#234 = DIRECTION ( 'NONE',  ( -4.275831445896959482E-31, -1.000000000000000000, -1.224646799147353454E-16 ) ) ;
#235 =( NAMED_UNIT ( * ) PLANE_ANGLE_UNIT ( ) SI_UNIT ( $, .RADIAN. ) );
#236 = SECURITY_CLASSIFICATION_LEVEL ( 'unclassified' ) ;
#237 = CARTESIAN_POINT ( 'NONE',  ( 1.224646799147342114E-16, -0.9999999999999943379, -1.224646799147350742E-16 ) ) ;
#238 =( GEOMETRIC_REPRESENTATION_CONTEXT ( 3 ) GLOBAL_UNCERTAINTY_ASSIGNED_CONTEXT ( ( #280 ) ) GLOBAL_UNIT_ASSIGNED_CONTEXT ( ( #184, #235, #156 ) ) REPRESENTATION_CONTEXT ( 'NONE', 'WORKASPACE' ) );
#239 = ORIENTED_EDGE ( 'NONE', *, *, #145, .T. ) ;
#240 = PERSON_AND_ORGANIZATION_ROLE ( 'design_owner' ) ;
#241 = PERSON_AND_ORGANIZATION ( #77, #80 ) ;
#242 = MANIFOLD_SOLID_BREP ( 'Corps-Déplacer/Copier1[2]', #38 ) ;
#243 = ADVANCED_FACE ( 'NONE', ( #79 ), #187, .T. ) ;
#244 = CALENDAR_DATE ( 2021, 21, 9 ) ;
#245 = DIRECTION ( 'NONE',  ( 3.491481338843133355E-15, -1.224646799147353454E-16, 1.000000000000000000 ) ) ;
#246 = CLOSED_SHELL ( 'NONE', ( #182, #18, #253, #243, #105, #163 ) ) ;
#247 = PERSON_AND_ORGANIZATION_ROLE ( 'creator' ) ;
#248 = DIRECTION ( 'NONE',  ( -3.491481338843133355E-15, 1.224646799147353454E-16, -1.000000000000000000 ) ) ;
#249 = PRODUCT_RELATED_PRODUCT_CATEGORY ( 'detail', '', ( #224 ) ) ;
#250 = VECTOR ( 'NONE', #276, 1000.000000000000000 ) ;
#251 = LINE ( 'NONE', #50, #16 ) ;
#252 = DIRECTION ( 'NONE',  ( -3.491481338843133355E-15, 1.224646799147353454E-16, -1.000000000000000000 ) ) ;
#253 = ADVANCED_FACE ( 'NONE', ( #5 ), #208, .F. ) ;
#254 = DIRECTION ( 'NONE',  ( 3.491481338843133355E-15, -1.224646799147353454E-16, 1.000000000000000000 ) ) ;
#255 = LOCAL_TIME ( 9, 37, 59.00000000000000000, #59 ) ;
#256 = LINE ( 'NONE', #231, #180 ) ;
#257 = DIRECTION ( 'NONE',  ( -3.491481338843133355E-15, 1.224646799147353454E-16, -1.000000000000000000 ) ) ;
#258 = AXIS2_PLACEMENT_3D ( 'NONE', #123, #39, #195 ) ;
#259 = DIRECTION ( 'NONE',  ( -3.491481338843133355E-15, 1.224646799147353454E-16, -1.000000000000000000 ) ) ;
#260 = DATE_AND_TIME ( #265, #255 ) ;
#261 = AXIS2_PLACEMENT_3D ( 'NONE', #86, #259, #220 ) ;
#262 = SECURITY_CLASSIFICATION ( '', '', #236 ) ;
#263 = EDGE_CURVE ( 'NONE', #175, #173, #91, .T. ) ;
#264 = APPROVAL_STATUS ( 'not_yet_approved' ) ;
#265 = CALENDAR_DATE ( 2021, 21, 9 ) ;
#266 = EDGE_LOOP ( 'NONE', ( #49, #128, #40, #284 ) ) ;
#267 = VECTOR ( 'NONE', #248, 1000.000000000000000 ) ;
#268 = CARTESIAN_POINT ( 'NONE',  ( 0.0000000000000000000, 0.0000000000000000000, 0.0000000000000000000 ) ) ;
#269 = APPROVAL ( #62, 'UNSPECIFIED' ) ;
#270 = ORIENTED_EDGE ( 'NONE', *, *, #263, .T. ) ;
#271 = EDGE_LOOP ( 'NONE', ( #199, #103 ) ) ;
#272 = CIRCLE ( 'NONE', #99, 0.9999999999999963363 ) ;
#273 = LOCAL_TIME ( 9, 37, 59.00000000000000000, #216 ) ;
#274 = EDGE_CURVE ( 'NONE', #189, #223, #36, .T. ) ;
#275 = CARTESIAN_POINT ( 'NONE',  ( 3.491481338843162938E-15, -3.252606517456538151E-15, 1.000000000000008438 ) ) ;
#276 = DIRECTION ( 'NONE',  ( -2.382254525458660672E-15, -0.7071067811865627828, -0.7071067811865322517 ) ) ;
#277 = FACE_OUTER_BOUND ( 'NONE', #71, .T. ) ;
#278 = CONICAL_SURFACE ( 'NONE', #125, 0.9999999999999963363, 0.7853981633974428389 ) ;
#279 = DIRECTION ( 'NONE',  ( -3.491481338843133355E-15, 1.224646799147353454E-16, -1.000000000000000000 ) ) ;
#280 = UNCERTAINTY_MEASURE_WITH_UNIT (LENGTH_MEASURE( 1.000000000000000082E-05 ), #184, 'distance_accuracy_value', 'NONE');
#281 = CARTESIAN_POINT ( 'NONE',  ( 1.117274028429802674E-13, 5.999039130647315481E-33, 32.00000000000000000 ) ) ;
#282 = CC_DESIGN_APPROVAL ( #172, ( #8 ) ) ;
#283 = CALENDAR_DATE ( 2021, 21, 9 ) ;
#284 = ORIENTED_EDGE ( 'NONE', *, *, #198, .F. ) ;
#285 = PERSON_AND_ORGANIZATION ( #77, #80 ) ;
#286 = ADVANCED_FACE ( 'NONE', ( #24 ), #96, .T. ) ;
#287 = APPROVAL_ROLE ( '' ) ;
ENDSEC;
END-ISO-10303-21;
