ISO-10303-21;
HEADER;
FILE_DESCRIPTION (( 'STEP AP203' ),
    '1' );
FILE_NAME ('47066.step',
    '2021-11-01T09:16:25',
    ( '' ),
    ( '' ),
    'SwSTEP 2.0',
    'SolidWorks 2019',
    '' );
FILE_SCHEMA (( 'CONFIG_CONTROL_DESIGN' ));
ENDSEC;

DATA;
#1 = VERTEX_POINT ( 'NONE', #192 ) ;
#2 = FACE_OUTER_BOUND ( 'NONE', #111, .T. ) ;
#3 = APPROVAL_DATE_TIME ( #184, #210 ) ;
#4 = AXIS2_PLACEMENT_3D ( 'NONE', #194, #209, #227 ) ;
#5 = SHAPE_DEFINITION_REPRESENTATION ( #95, #34 ) ;
#6 = ADVANCED_FACE ( 'NONE', ( #11, #103 ), #224, .F. ) ;
#7 = FACE_OUTER_BOUND ( 'NONE', #43, .T. ) ;
#8 = PERSON_AND_ORGANIZATION_ROLE ( 'creator' ) ;
#9 = PLANE ( 'NONE',  #122 ) ;
#10 = PERSON_AND_ORGANIZATION ( #28, #188 ) ;
#11 = FACE_OUTER_BOUND ( 'NONE', #168, .T. ) ;
#12 = DIRECTION ( 'NONE',  ( -4.316975922738838061E-31, -1.000000000000000000, -1.219242935835426903E-16 ) ) ;
#13 = DIRECTION ( 'NONE',  ( -4.275831445896958607E-31, -1.000000000000000000, -1.224646799147353207E-16 ) ) ;
#14 = CIRCLE ( 'NONE', #167, 0.4250000000000000444 ) ;
#15 = CC_DESIGN_APPROVAL ( #210, ( #117 ) ) ;
#16 = APPROVAL_STATUS ( 'not_yet_approved' ) ;
#17 = ORIENTED_EDGE ( 'NONE', *, *, #74, .F. ) ;
#18 = EDGE_CURVE ( 'NONE', #20, #20, #104, .T. ) ;
#19 = CARTESIAN_POINT ( 'NONE',  ( -3.568726464013333496E-30, -0.4250000000000000444, -1.022123883152643187E-15 ) ) ;
#20 = VERTEX_POINT ( 'NONE', #71 ) ;
#21 =( GEOMETRIC_REPRESENTATION_CONTEXT ( 3 ) GLOBAL_UNCERTAINTY_ASSIGNED_CONTEXT ( ( #165 ) ) GLOBAL_UNIT_ASSIGNED_CONTEXT ( ( #109, #92, #130 ) ) REPRESENTATION_CONTEXT ( 'NONE', 'WORKASPACE' ) );
#22 = APPROVAL_DATE_TIME ( #229, #62 ) ;
#23 = DIRECTION ( 'NONE',  ( 4.275831445896958607E-31, 1.000000000000000000, 1.224646799147353207E-16 ) ) ;
#24 = DIRECTION ( 'NONE',  ( -4.256963957985708889E-31, -1.000000000000000000, -1.219242935835426903E-16 ) ) ;
#25 = APPROVAL_STATUS ( 'not_yet_approved' ) ;
#26 = AXIS2_PLACEMENT_3D ( 'NONE', #67, #49, #12 ) ;
#27 = CYLINDRICAL_SURFACE ( 'NONE', #175, 0.4249999999999999334 ) ;
#28 = PERSON ( 'UNSPECIFIED', 'UNSPECIFIED', 'UNSPECIFIED', ('UNSPECIFIED'), ('UNSPECIFIED'), ('UNSPECIFIED') ) ;
#29 = CARTESIAN_POINT ( 'NONE',  ( 6.284666409917637673E-15, -2.194637284503767636E-16, 1.799999999999999378 ) ) ;
#30 = EDGE_LOOP ( 'NONE', ( #108 ) ) ;
#31 = CC_DESIGN_APPROVAL ( #70, ( #32 ) ) ;
#32 = PRODUCT_DEFINITION ( 'UNKNOWN', '', #117, #200 ) ;
#33 = ORIENTED_EDGE ( 'NONE', *, *, #52, .T. ) ;
#34 = ADVANCED_BREP_SHAPE_REPRESENTATION ( '47066', ( #177, #88, #225 ), #21 ) ;
#35 = CARTESIAN_POINT ( 'NONE',  ( 8.091990142142888532E-15, -0.4931483474218598118, 2.317638090205026646 ) ) ;
#36 = CARTESIAN_POINT ( 'NONE',  ( 6.284666409917637673E-15, -2.194637284503767636E-16, 1.799999999999999378 ) ) ;
#37 = CARTESIAN_POINT ( 'NONE',  ( 0.0000000000000000000, 0.0000000000000000000, 0.0000000000000000000 ) ) ;
#38 = CC_DESIGN_DATE_AND_TIME_ASSIGNMENT ( #142, #137, ( #32 ) ) ;
#39 = APPROVAL_ROLE ( '' ) ;
#40 = PRODUCT_RELATED_PRODUCT_CATEGORY ( 'detail', '', ( #58 ) ) ;
#41 = PERSON_AND_ORGANIZATION_ROLE ( 'design_supplier' ) ;
#42 = AXIS2_PLACEMENT_3D ( 'NONE', #37, #55, #115 ) ;
#43 = EDGE_LOOP ( 'NONE', ( #238 ) ) ;
#44 = SECURITY_CLASSIFICATION_LEVEL ( 'unclassified' ) ;
#45 = AXIS2_PLACEMENT_3D ( 'NONE', #237, #63, #85 ) ;
#46 = ADVANCED_FACE ( 'NONE', ( #235, #220 ), #161, .T. ) ;
#47 = DIRECTION ( 'NONE',  ( -4.275831445896958607E-31, -1.000000000000000000, -1.224646799147353207E-16 ) ) ;
#48 = FACE_OUTER_BOUND ( 'NONE', #69, .T. ) ;
#49 = DIRECTION ( 'NONE',  ( 3.491481338843133355E-15, -1.219242935835426903E-16, 1.000000000000000000 ) ) ;
#50 = APPLICATION_PROTOCOL_DEFINITION ( 'international standard', 'config_control_design', 1994, #223 ) ;
#51 = EDGE_LOOP ( 'NONE', ( #89 ) ) ;
#52 = EDGE_CURVE ( 'NONE', #114, #114, #14, .T. ) ;
#53 = APPROVAL_PERSON_ORGANIZATION ( #99, #62, #39 ) ;
#54 = FACE_OUTER_BOUND ( 'NONE', #205, .T. ) ;
#55 = DIRECTION ( 'NONE',  ( -3.491481338843133355E-15, 1.224646799147353207E-16, -1.000000000000000000 ) ) ;
#56 = ADVANCED_FACE ( 'NONE', ( #48, #121 ), #27, .T. ) ;
#57 = APPLICATION_PROTOCOL_DEFINITION ( 'international standard', 'config_control_design', 1994, #90 ) ;
#58 = PRODUCT ( '47066', '47066', '', ( #73 ) ) ;
#59 = CARTESIAN_POINT ( 'NONE',  ( 6.284666409917640040E-15, -2.602085213965217544E-16, 1.800000000000000044 ) ) ;
#60 = COORDINATED_UNIVERSAL_TIME_OFFSET ( 1, 0, .AHEAD. ) ;
#61 = CARTESIAN_POINT ( 'NONE',  ( 6.284666409917640040E-15, -2.602085213965217544E-16, 1.800000000000000044 ) ) ;
#62 = APPROVAL ( #25, 'UNSPECIFIED' ) ;
#63 = DIRECTION ( 'NONE',  ( -3.491481338843133355E-15, 1.224646799147353207E-16, -1.000000000000000000 ) ) ;
#64 = APPROVAL_PERSON_ORGANIZATION ( #75, #70, #170 ) ;
#65 = AXIS2_PLACEMENT_3D ( 'NONE', #59, #143, #47 ) ;
#66 = LOCAL_TIME ( 10, 16, 25.00000000000000000, #158 ) ;
#67 = CARTESIAN_POINT ( 'NONE',  ( 6.284666409917637673E-15, -4.336808689942017736E-16, 1.799999999999999378 ) ) ;
#68 = COORDINATED_UNIVERSAL_TIME_OFFSET ( 1, 0, .AHEAD. ) ;
#69 = EDGE_LOOP ( 'NONE', ( #33 ) ) ;
#70 = APPROVAL ( #16, 'UNSPECIFIED' ) ;
#71 = CARTESIAN_POINT ( 'NONE',  ( 6.284666409917637673E-15, -0.4250000000000000444, 1.799999999999999378 ) ) ;
#72 = APPROVAL_PERSON_ORGANIZATION ( #76, #210, #213 ) ;
#73 = MECHANICAL_CONTEXT ( 'NONE', #223, 'mechanical' ) ;
#74 = EDGE_CURVE ( 'NONE', #113, #113, #94, .T. ) ;
#75 = PERSON_AND_ORGANIZATION ( #28, #188 ) ;
#76 = PERSON_AND_ORGANIZATION ( #28, #188 ) ;
#77 = CALENDAR_DATE ( 2021, 1, 11 ) ;
#78 = CIRCLE ( 'NONE', #222, 1.499999999999991562 ) ;
#79 = DIRECTION ( 'NONE',  ( 3.491481338843133355E-15, -1.224646799147353207E-16, 1.000000000000000000 ) ) ;
#80 = CC_DESIGN_PERSON_AND_ORGANIZATION_ASSIGNMENT ( #236, #162, ( #32 ) ) ;
#81 = EDGE_LOOP ( 'NONE', ( #17 ) ) ;
#82 = DIRECTION ( 'NONE',  ( -3.491481338843133355E-15, 1.224646799147353207E-16, -1.000000000000000000 ) ) ;
#83 = ADVANCED_FACE ( 'NONE', ( #202 ), #9, .F. ) ;
#84 = LOCAL_TIME ( 10, 16, 25.00000000000000000, #60 ) ;
#85 = DIRECTION ( 'NONE',  ( 0.0000000000000000000, 1.000000000000000000, 0.0000000000000000000 ) ) ;
#86 = DIRECTION ( 'NONE',  ( 1.000000000000000000, 0.0000000000000000000, 0.0000000000000000000 ) ) ;
#87 = ORIENTED_EDGE ( 'NONE', *, *, #52, .F. ) ;
#88 = MANIFOLD_SOLID_BREP ( 'Corps-Déplacer/Copier1[2]', #128 ) ;
#89 = ORIENTED_EDGE ( 'NONE', *, *, #18, .F. ) ;
#90 = APPLICATION_CONTEXT ( 'configuration controlled 3d designs of mechanical parts and assemblies' ) ;
#91 = APPROVAL_DATE_TIME ( #148, #70 ) ;
#92 =( NAMED_UNIT ( * ) PLANE_ANGLE_UNIT ( ) SI_UNIT ( $, .RADIAN. ) );
#93 = EDGE_CURVE ( 'NONE', #1, #1, #193, .T. ) ;
#94 = CIRCLE ( 'NONE', #231, 1.199999999999993738 ) ;
#95 = PRODUCT_DEFINITION_SHAPE ( 'NONE', 'NONE',  #32 ) ;
#96 = VERTEX_POINT ( 'NONE', #228 ) ;
#97 = CC_DESIGN_APPROVAL ( #62, ( #195 ) ) ;
#98 = PERSON_AND_ORGANIZATION ( #28, #188 ) ;
#99 = PERSON_AND_ORGANIZATION ( #28, #188 ) ;
#100 = CARTESIAN_POINT ( 'NONE',  ( 2.121165556850410401E-14, -7.407217366896191832E-16, 6.075259613311400742 ) ) ;
#101 = DATE_TIME_ROLE ( 'classification_date' ) ;
#102 = ADVANCED_FACE ( 'NONE', ( #166 ), #163, .F. ) ;
#103 = FACE_OUTER_BOUND ( 'NONE', #150, .T. ) ;
#104 = CIRCLE ( 'NONE', #116, 0.4249999999999998224 ) ;
#105 = DIRECTION ( 'NONE',  ( 0.0000000000000000000, 1.000000000000000000, 0.0000000000000000000 ) ) ;
#106 = DIRECTION ( 'NONE',  ( -4.275831445896958607E-31, -1.000000000000000000, -1.224646799147353207E-16 ) ) ;
#107 = CARTESIAN_POINT ( 'NONE',  ( 1.326762908760390423E-13, -4.653657836759941941E-15, 38.00000000000000000 ) ) ;
#108 = ORIENTED_EDGE ( 'NONE', *, *, #93, .F. ) ;
#109 =( LENGTH_UNIT ( ) NAMED_UNIT ( * ) SI_UNIT ( .MILLI., .METRE. ) );
#110 = CC_DESIGN_PERSON_AND_ORGANIZATION_ASSIGNMENT ( #98, #41, ( #117 ) ) ;
#111 = EDGE_LOOP ( 'NONE', ( #169 ) ) ;
#112 = CONICAL_SURFACE ( 'NONE', #4, 2.499999999999992895, 0.2617993877991429130 ) ;
#113 = VERTEX_POINT ( 'NONE', #208 ) ;
#114 = VERTEX_POINT ( 'NONE', #19 ) ;
#115 = DIRECTION ( 'NONE',  ( 4.275831445896958607E-31, 1.000000000000000000, 1.224646799147353207E-16 ) ) ;
#116 = AXIS2_PLACEMENT_3D ( 'NONE', #29, #120, #146 ) ;
#117 = PRODUCT_DEFINITION_FORMATION_WITH_SPECIFIED_SOURCE ( 'ANY', '', #58, .NOT_KNOWN. ) ;
#118 = COORDINATED_UNIVERSAL_TIME_OFFSET ( 1, 0, .AHEAD. ) ;
#119 = CC_DESIGN_DATE_AND_TIME_ASSIGNMENT ( #196, #101, ( #195 ) ) ;
#120 = DIRECTION ( 'NONE',  ( 3.491481338843133355E-15, -1.219242935835426903E-16, 1.000000000000000000 ) ) ;
#121 = FACE_OUTER_BOUND ( 'NONE', #185, .T. ) ;
#122 = AXIS2_PLACEMENT_3D ( 'NONE', #199, #79, #13 ) ;
#123 = CARTESIAN_POINT ( 'NONE',  ( 8.091990142142888532E-15, -2.825763869305588901E-16, 2.317638090205026646 ) ) ;
#124 = CARTESIAN_POINT ( 'NONE',  ( 1.326762908760390423E-13, -4.653657836759941941E-15, 38.00000000000000000 ) ) ;
#125 = ORIENTED_EDGE ( 'NONE', *, *, #233, .F. ) ;
#126 = CARTESIAN_POINT ( 'NONE',  ( 1.326762908760390423E-13, 8.998558695971030697E-33, 38.00000000000000000 ) ) ;
#127 = EDGE_LOOP ( 'NONE', ( #241 ) ) ;
#128 = CLOSED_SHELL ( 'NONE', ( #155, #56, #83 ) ) ;
#129 = CC_DESIGN_PERSON_AND_ORGANIZATION_ASSIGNMENT ( #154, #135, ( #58 ) ) ;
#130 =( NAMED_UNIT ( * ) SI_UNIT ( $, .STERADIAN. ) SOLID_ANGLE_UNIT ( ) );
#131 = CIRCLE ( 'NONE', #152, 0.4931483474218595342 ) ;
#132 = ADVANCED_FACE ( 'NONE', ( #239 ), #221, .F. ) ;
#133 = VERTEX_POINT ( 'NONE', #151 ) ;
#134 = DIRECTION ( 'NONE',  ( 0.0000000000000000000, -1.000000000000000000, 0.0000000000000000000 ) ) ;
#135 = PERSON_AND_ORGANIZATION_ROLE ( 'design_owner' ) ;
#136 = AXIS2_PLACEMENT_3D ( 'NONE', #107, #186, #105 ) ;
#137 = DATE_TIME_ROLE ( 'creation_date' ) ;
#138 = CALENDAR_DATE ( 2021, 1, 11 ) ;
#139 = AXIS2_PLACEMENT_3D ( 'NONE', #61, #218, #106 ) ;
#140 = EDGE_CURVE ( 'NONE', #133, #133, #78, .T. ) ;
#141 = LOCAL_TIME ( 10, 16, 25.00000000000000000, #68 ) ;
#142 = DATE_AND_TIME ( #182, #66 ) ;
#143 = DIRECTION ( 'NONE',  ( 3.491481338843133355E-15, -1.224646799147353207E-16, 1.000000000000000000 ) ) ;
#144 = CARTESIAN_POINT ( 'NONE',  ( 0.0000000000000000000, 0.0000000000000000000, 0.0000000000000000000 ) ) ;
#145 = DIRECTION ( 'NONE',  ( -3.491481338843133355E-15, 1.224646799147353207E-16, -1.000000000000000000 ) ) ;
#146 = DIRECTION ( 'NONE',  ( 0.0000000000000000000, -1.000000000000000000, 0.0000000000000000000 ) ) ;
#147 = DIRECTION ( 'NONE',  ( 3.491481338843133355E-15, -1.219242935835426903E-16, 1.000000000000000000 ) ) ;
#148 = DATE_AND_TIME ( #240, #141 ) ;
#149 = CIRCLE ( 'NONE', #178, 0.4249999999999998224 ) ;
#150 = EDGE_LOOP ( 'NONE', ( #242 ) ) ;
#151 = CARTESIAN_POINT ( 'NONE',  ( 2.121165556850410401E-14, -1.499999999999992228, 6.075259613311400742 ) ) ;
#152 = AXIS2_PLACEMENT_3D ( 'NONE', #123, #201, #203 ) ;
#153 = LOCAL_TIME ( 10, 16, 25.00000000000000000, #118 ) ;
#154 = PERSON_AND_ORGANIZATION ( #28, #188 ) ;
#155 = ADVANCED_FACE ( 'NONE', ( #7 ), #232, .T. ) ;
#156 = CYLINDRICAL_SURFACE ( 'NONE', #42, 1.499999999999991562 ) ;
#157 = PERSON_AND_ORGANIZATION_ROLE ( 'classification_officer' ) ;
#158 = COORDINATED_UNIVERSAL_TIME_OFFSET ( 1, 0, .AHEAD. ) ;
#159 = EDGE_CURVE ( 'NONE', #243, #243, #131, .T. ) ;
#160 = DIRECTION ( 'NONE',  ( -3.491481338843133355E-15, 1.219242935835426903E-16, -1.000000000000000000 ) ) ;
#161 = CONICAL_SURFACE ( 'NONE', #136, 1.199999999999993738, 0.7853981633974453924 ) ;
#162 = PERSON_AND_ORGANIZATION_ROLE ( 'creator' ) ;
#163 = PLANE ( 'NONE',  #139 ) ;
#164 = ORIENTED_EDGE ( 'NONE', *, *, #159, .T. ) ;
#165 = UNCERTAINTY_MEASURE_WITH_UNIT (LENGTH_MEASURE( 1.000000000000000082E-05 ), #109, 'distance_accuracy_value', 'NONE');
#166 = FACE_OUTER_BOUND ( 'NONE', #51, .T. ) ;
#167 = AXIS2_PLACEMENT_3D ( 'NONE', #187, #147, #183 ) ;
#168 = EDGE_LOOP ( 'NONE', ( #216 ) ) ;
#169 = ORIENTED_EDGE ( 'NONE', *, *, #140, .T. ) ;
#170 = APPROVAL_ROLE ( '' ) ;
#171 = CC_DESIGN_PERSON_AND_ORGANIZATION_ASSIGNMENT ( #10, #157, ( #195 ) ) ;
#172 = EDGE_LOOP ( 'NONE', ( #87 ) ) ;
#173 = ORIENTED_EDGE ( 'NONE', *, *, #93, .T. ) ;
#174 = CARTESIAN_POINT ( 'NONE',  ( 0.0000000000000000000, 0.0000000000000000000, 0.0000000000000000000 ) ) ;
#175 = AXIS2_PLACEMENT_3D ( 'NONE', #144, #197, #24 ) ;
#176 = DIRECTION ( 'NONE',  ( 0.0000000000000000000, 0.0000000000000000000, 1.000000000000000000 ) ) ;
#177 = MANIFOLD_SOLID_BREP ( 'Corps-Déplacer/Copier1[1]', #206 ) ;
#178 = AXIS2_PLACEMENT_3D ( 'NONE', #36, #226, #134 ) ;
#179 = ADVANCED_FACE ( 'NONE', ( #54, #212 ), #156, .T. ) ;
#180 = CALENDAR_DATE ( 2021, 1, 11 ) ;
#181 = DIRECTION ( 'NONE',  ( 0.0000000000000000000, 1.000000000000000000, 0.0000000000000000000 ) ) ;
#182 = CALENDAR_DATE ( 2021, 1, 11 ) ;
#183 = DIRECTION ( 'NONE',  ( -4.256963957985707137E-31, -1.000000000000000000, -1.219242935835425177E-16 ) ) ;
#184 = DATE_AND_TIME ( #77, #84 ) ;
#185 = EDGE_LOOP ( 'NONE', ( #125 ) ) ;
#186 = DIRECTION ( 'NONE',  ( -3.491481338843133355E-15, 1.224646799147353207E-16, -1.000000000000000000 ) ) ;
#187 = CARTESIAN_POINT ( 'NONE',  ( -3.387805495798940297E-30, 1.183038807277690409E-31, -9.703060583796375981E-16 ) ) ;
#188 = ORGANIZATION ( 'UNSPECIFIED', 'UNSPECIFIED', '' ) ;
#189 = EDGE_LOOP ( 'NONE', ( #164 ) ) ;
#190 = ORIENTED_EDGE ( 'NONE', *, *, #74, .T. ) ;
#191 = AXIS2_PLACEMENT_3D ( 'NONE', #126, #145, #23 ) ;
#192 = CARTESIAN_POINT ( 'NONE',  ( 1.316288464743861212E-13, 1.499999999999989120, 37.69999999999999574 ) ) ;
#193 = CIRCLE ( 'NONE', #45, 1.499999999999993783 ) ;
#194 = CARTESIAN_POINT ( 'NONE',  ( 3.424204131874564127E-14, -1.195749395020357014E-15, 9.807310420880378743 ) ) ;
#195 = SECURITY_CLASSIFICATION ( '', '', #44 ) ;
#196 = DATE_AND_TIME ( #138, #207 ) ;
#197 = DIRECTION ( 'NONE',  ( 3.491481338843133355E-15, -1.219242935835426903E-16, 1.000000000000000000 ) ) ;
#198 = CC_DESIGN_PERSON_AND_ORGANIZATION_ASSIGNMENT ( #214, #8, ( #117 ) ) ;
#199 = CARTESIAN_POINT ( 'NONE',  ( -1.282754905350004587E-30, 4.499298539707956128E-32, -3.673956068672651857E-16 ) ) ;
#200 = DESIGN_CONTEXT ( 'detailed design', #90, 'design' ) ;
#201 = DIRECTION ( 'NONE',  ( 3.491481338843133355E-15, -1.219242935835426903E-16, 1.000000000000000000 ) ) ;
#202 = FACE_OUTER_BOUND ( 'NONE', #172, .T. ) ;
#203 = DIRECTION ( 'NONE',  ( 0.0000000000000000000, -1.000000000000000000, 0.0000000000000000000 ) ) ;
#204 = EDGE_LOOP ( 'NONE', ( #190 ) ) ;
#205 = EDGE_LOOP ( 'NONE', ( #173 ) ) ;
#206 = CLOSED_SHELL ( 'NONE', ( #179, #46, #132, #217, #6, #102 ) ) ;
#207 = LOCAL_TIME ( 10, 16, 25.00000000000000000, #230 ) ;
#208 = CARTESIAN_POINT ( 'NONE',  ( 1.326762908760390423E-13, 1.199999999999989297, 38.00000000000000000 ) ) ;
#209 = DIRECTION ( 'NONE',  ( 3.491481338843133355E-15, -1.219242935835426903E-16, 1.000000000000000000 ) ) ;
#210 = APPROVAL ( #234, 'UNSPECIFIED' ) ;
#211 = FACE_BOUND ( 'NONE', #189, .T. ) ;
#212 = FACE_OUTER_BOUND ( 'NONE', #127, .T. ) ;
#213 = APPROVAL_ROLE ( '' ) ;
#214 = PERSON_AND_ORGANIZATION ( #28, #188 ) ;
#215 = CC_DESIGN_SECURITY_CLASSIFICATION ( #195, ( #117 ) ) ;
#216 = ORIENTED_EDGE ( 'NONE', *, *, #18, .T. ) ;
#217 = ADVANCED_FACE ( 'NONE', ( #211, #2 ), #112, .T. ) ;
#218 = DIRECTION ( 'NONE',  ( 3.491481338843133355E-15, -1.224646799147353207E-16, 1.000000000000000000 ) ) ;
#219 = DIRECTION ( 'NONE',  ( 0.0000000000000000000, -1.000000000000000000, 0.0000000000000000000 ) ) ;
#220 = FACE_BOUND ( 'NONE', #204, .T. ) ;
#221 = PLANE ( 'NONE',  #191 ) ;
#222 = AXIS2_PLACEMENT_3D ( 'NONE', #100, #160, #219 ) ;
#223 = APPLICATION_CONTEXT ( 'configuration controlled 3d designs of mechanical parts and assemblies' ) ;
#224 = TOROIDAL_SURFACE ( 'NONE', #26, 2.425000000000000266, 2.000000000000000000 ) ;
#225 = AXIS2_PLACEMENT_3D ( 'NONE', #174, #176, #86 ) ;
#226 = DIRECTION ( 'NONE',  ( 3.491481338843133355E-15, -1.219242935835426903E-16, 1.000000000000000000 ) ) ;
#227 = DIRECTION ( 'NONE',  ( 0.0000000000000000000, -1.000000000000000000, 0.0000000000000000000 ) ) ;
#228 = CARTESIAN_POINT ( 'NONE',  ( 6.284666409917637673E-15, -0.4250000000000000444, 1.799999999999999378 ) ) ;
#229 = DATE_AND_TIME ( #180, #153 ) ;
#230 = COORDINATED_UNIVERSAL_TIME_OFFSET ( 1, 0, .AHEAD. ) ;
#231 = AXIS2_PLACEMENT_3D ( 'NONE', #124, #82, #181 ) ;
#232 = PLANE ( 'NONE',  #65 ) ;
#233 = EDGE_CURVE ( 'NONE', #96, #96, #149, .T. ) ;
#234 = APPROVAL_STATUS ( 'not_yet_approved' ) ;
#235 = FACE_OUTER_BOUND ( 'NONE', #30, .T. ) ;
#236 = PERSON_AND_ORGANIZATION ( #28, #188 ) ;
#237 = CARTESIAN_POINT ( 'NONE',  ( 1.316288464743861212E-13, -4.616918432785521081E-15, 37.69999999999999574 ) ) ;
#238 = ORIENTED_EDGE ( 'NONE', *, *, #233, .T. ) ;
#239 = FACE_OUTER_BOUND ( 'NONE', #81, .T. ) ;
#240 = CALENDAR_DATE ( 2021, 1, 11 ) ;
#241 = ORIENTED_EDGE ( 'NONE', *, *, #140, .F. ) ;
#242 = ORIENTED_EDGE ( 'NONE', *, *, #159, .F. ) ;
#243 = VERTEX_POINT ( 'NONE', #35 ) ;
ENDSEC;
END-ISO-10303-21;
