ISO-10303-21;
HEADER;
FILE_DESCRIPTION (( 'STEP AP203' ),
    '1' );
FILE_NAME ('47040.step',
    '2021-10-15T13:34:57',
    ( '' ),
    ( '' ),
    'SwSTEP 2.0',
    'SolidWorks 2019',
    '' );
FILE_SCHEMA (( 'CONFIG_CONTROL_DESIGN' ));
ENDSEC;

DATA;
#1 = ADVANCED_BREP_SHAPE_REPRESENTATION ( '47040', ( #131, #137, #70 ), #8 ) ;
#2 = CARTESIAN_POINT ( 'NONE',  ( 1.326762908760390423E-13, -4.653657836759941941E-15, 38.00000000000000000 ) ) ;
#3 = PERSON_AND_ORGANIZATION ( #12, #167 ) ;
#4 = AXIS2_PLACEMENT_3D ( 'NONE', #119, #136, #88 ) ;
#5 = PERSON_AND_ORGANIZATION_ROLE ( 'design_supplier' ) ;
#6 = SECURITY_CLASSIFICATION_LEVEL ( 'unclassified' ) ;
#7 = DIRECTION ( 'NONE',  ( -3.491481338843133355E-15, 1.224646799147353207E-16, -1.000000000000000000 ) ) ;
#8 =( GEOMETRIC_REPRESENTATION_CONTEXT ( 3 ) GLOBAL_UNCERTAINTY_ASSIGNED_CONTEXT ( ( #164 ) ) GLOBAL_UNIT_ASSIGNED_CONTEXT ( ( #172, #36, #35 ) ) REPRESENTATION_CONTEXT ( 'NONE', 'WORKASPACE' ) );
#9 = EDGE_LOOP ( 'NONE', ( #128 ) ) ;
#10 = CARTESIAN_POINT ( 'NONE',  ( 1.239025398813950567E-15, -4.345916078195456214E-17, 0.3548709784095506192 ) ) ;
#11 = FACE_BOUND ( 'NONE', #161, .T. ) ;
#12 = PERSON ( 'UNSPECIFIED', 'UNSPECIFIED', 'UNSPECIFIED', ('UNSPECIFIED'), ('UNSPECIFIED'), ('UNSPECIFIED') ) ;
#13 = DIRECTION ( 'NONE',  ( 0.0000000000000000000, 1.000000000000000000, 0.0000000000000000000 ) ) ;
#14 = SECURITY_CLASSIFICATION ( '', '', #6 ) ;
#15 = DIRECTION ( 'NONE',  ( 4.275831445896958607E-31, 1.000000000000000000, 1.224646799147353207E-16 ) ) ;
#16 = APPROVAL_STATUS ( 'not_yet_approved' ) ;
#17 = AXIS2_PLACEMENT_3D ( 'NONE', #2, #117, #132 ) ;
#18 = CC_DESIGN_DATE_AND_TIME_ASSIGNMENT ( #55, #177, ( #14 ) ) ;
#19 = CALENDAR_DATE ( 2021, 15, 10 ) ;
#20 = ADVANCED_FACE ( 'NONE', ( #24 ), #178, .F. ) ;
#21 = CARTESIAN_POINT ( 'NONE',  ( 4.189777606611760026E-14, -1.469576158976823947E-15, 12.00000000000000000 ) ) ;
#22 = APPROVAL ( #68, 'UNSPECIFIED' ) ;
#23 = EDGE_LOOP ( 'NONE', ( #157 ) ) ;
#24 = FACE_OUTER_BOUND ( 'NONE', #23, .T. ) ;
#25 = CARTESIAN_POINT ( 'NONE',  ( 4.189777606611760026E-14, -1.469576158976823947E-15, 12.00000000000000000 ) ) ;
#26 = CARTESIAN_POINT ( 'NONE',  ( 1.316288464743861212E-13, 0.9749999999999963141, 37.69999999999999574 ) ) ;
#27 = AXIS2_PLACEMENT_3D ( 'NONE', #10, #149, #62 ) ;
#28 = FACE_OUTER_BOUND ( 'NONE', #9, .T. ) ;
#29 = EDGE_CURVE ( 'NONE', #74, #74, #190, .T. ) ;
#30 = DIRECTION ( 'NONE',  ( 3.950625526948190975E-31, 1.000000000000000000, 1.112002228190265142E-16 ) ) ;
#31 = CC_DESIGN_APPROVAL ( #22, ( #38 ) ) ;
#32 = DIRECTION ( 'NONE',  ( -3.491481338843133355E-15, 1.224646799147353207E-16, -1.000000000000000000 ) ) ;
#33 = EDGE_CURVE ( 'NONE', #47, #47, #40, .T. ) ;
#34 = APPROVAL_ROLE ( '' ) ;
#35 =( NAMED_UNIT ( * ) SI_UNIT ( $, .STERADIAN. ) SOLID_ANGLE_UNIT ( ) );
#36 =( NAMED_UNIT ( * ) PLANE_ANGLE_UNIT ( ) SI_UNIT ( $, .RADIAN. ) );
#37 = EDGE_LOOP ( 'NONE', ( #71 ) ) ;
#38 = PRODUCT_DEFINITION ( 'UNKNOWN', '', #48, #60 ) ;
#39 = APPROVAL_STATUS ( 'not_yet_approved' ) ;
#40 = CIRCLE ( 'NONE', #121, 0.9749999999999977573 ) ;
#41 = ORIENTED_EDGE ( 'NONE', *, *, #29, .T. ) ;
#42 = APPLICATION_CONTEXT ( 'configuration controlled 3d designs of mechanical parts and assemblies' ) ;
#43 = EDGE_LOOP ( 'NONE', ( #85 ) ) ;
#44 = APPROVAL ( #39, 'UNSPECIFIED' ) ;
#45 = DIRECTION ( 'NONE',  ( -3.491481338843133355E-15, 1.224646799147353207E-16, -1.000000000000000000 ) ) ;
#46 = FACE_OUTER_BOUND ( 'NONE', #97, .T. ) ;
#47 = VERTEX_POINT ( 'NONE', #181 ) ;
#48 = PRODUCT_DEFINITION_FORMATION_WITH_SPECIFIED_SOURCE ( 'ANY', '', #102, .NOT_KNOWN. ) ;
#49 = PERSON_AND_ORGANIZATION_ROLE ( 'creator' ) ;
#50 = PRODUCT_RELATED_PRODUCT_CATEGORY ( 'detail', '', ( #102 ) ) ;
#51 = DATE_TIME_ROLE ( 'creation_date' ) ;
#52 = CARTESIAN_POINT ( 'NONE',  ( 0.0000000000000000000, 0.0000000000000000000, 0.0000000000000000000 ) ) ;
#53 = CC_DESIGN_APPROVAL ( #194, ( #48 ) ) ;
#54 = ORIENTED_EDGE ( 'NONE', *, *, #173, .T. ) ;
#55 = DATE_AND_TIME ( #191, #156 ) ;
#56 = EDGE_LOOP ( 'NONE', ( #144 ) ) ;
#57 = PLANE ( 'NONE',  #192 ) ;
#58 = EDGE_CURVE ( 'NONE', #73, #73, #98, .T. ) ;
#59 = DIRECTION ( 'NONE',  ( -4.275831445896958607E-31, -1.000000000000000000, -1.224646799147353207E-16 ) ) ;
#60 = DESIGN_CONTEXT ( 'detailed design', #162, 'design' ) ;
#61 = CLOSED_SHELL ( 'NONE', ( #108, #105, #129 ) ) ;
#62 = DIRECTION ( 'NONE',  ( -3.950625526948190975E-31, -1.000000000000000000, -1.112002228190265142E-16 ) ) ;
#63 = DIRECTION ( 'NONE',  ( 3.491481338843133355E-15, -1.224646799147353207E-16, 1.000000000000000000 ) ) ;
#64 = COORDINATED_UNIVERSAL_TIME_OFFSET ( 1, 0, .AHEAD. ) ;
#65 = AXIS2_PLACEMENT_3D ( 'NONE', #103, #45, #15 ) ;
#66 = LOCAL_TIME ( 15, 34, 57.00000000000000000, #169 ) ;
#67 = ADVANCED_FACE ( 'NONE', ( #184, #46 ), #203, .T. ) ;
#68 = APPROVAL_STATUS ( 'not_yet_approved' ) ;
#69 = EDGE_LOOP ( 'NONE', ( #159 ) ) ;
#70 = AXIS2_PLACEMENT_3D ( 'NONE', #52, #187, #91 ) ;
#71 = ORIENTED_EDGE ( 'NONE', *, *, #29, .F. ) ;
#72 = CARTESIAN_POINT ( 'NONE',  ( 1.326762908760390423E-13, 5.061689266483707162E-33, 38.00000000000000000 ) ) ;
#73 = VERTEX_POINT ( 'NONE', #26 ) ;
#74 = VERTEX_POINT ( 'NONE', #120 ) ;
#75 = AXIS2_PLACEMENT_3D ( 'NONE', #72, #114, #179 ) ;
#76 = CYLINDRICAL_SURFACE ( 'NONE', #152, 0.9749999999999969802 ) ;
#77 = CC_DESIGN_PERSON_AND_ORGANIZATION_ASSIGNMENT ( #140, #5, ( #48 ) ) ;
#78 = APPROVAL_ROLE ( '' ) ;
#79 = APPLICATION_PROTOCOL_DEFINITION ( 'international standard', 'config_control_design', 1994, #42 ) ;
#80 = DATE_AND_TIME ( #19, #142 ) ;
#81 = CALENDAR_DATE ( 2021, 15, 10 ) ;
#82 = AXIS2_PLACEMENT_3D ( 'NONE', #135, #118, #166 ) ;
#83 = LOCAL_TIME ( 15, 34, 57.00000000000000000, #96 ) ;
#84 = PERSON_AND_ORGANIZATION ( #12, #167 ) ;
#85 = ORIENTED_EDGE ( 'NONE', *, *, #33, .F. ) ;
#86 = VERTEX_POINT ( 'NONE', #146 ) ;
#87 = CARTESIAN_POINT ( 'NONE',  ( 0.0000000000000000000, 0.0000000000000000000, 0.0000000000000000000 ) ) ;
#88 = DIRECTION ( 'NONE',  ( -4.275831445896958607E-31, -1.000000000000000000, -1.224646799147353207E-16 ) ) ;
#89 = CC_DESIGN_PERSON_AND_ORGANIZATION_ASSIGNMENT ( #109, #123, ( #48 ) ) ;
#90 = PRODUCT_DEFINITION_SHAPE ( 'NONE', 'NONE',  #38 ) ;
#91 = DIRECTION ( 'NONE',  ( 1.000000000000000000, 0.0000000000000000000, 0.0000000000000000000 ) ) ;
#92 = CC_DESIGN_SECURITY_CLASSIFICATION ( #14, ( #48 ) ) ;
#93 = MECHANICAL_CONTEXT ( 'NONE', #42, 'mechanical' ) ;
#94 = EDGE_CURVE ( 'NONE', #86, #86, #174, .T. ) ;
#95 = CC_DESIGN_PERSON_AND_ORGANIZATION_ASSIGNMENT ( #186, #49, ( #38 ) ) ;
#96 = COORDINATED_UNIVERSAL_TIME_OFFSET ( 1, 0, .AHEAD. ) ;
#97 = EDGE_LOOP ( 'NONE', ( #110 ) ) ;
#98 = CIRCLE ( 'NONE', #82, 0.9750000000000009770 ) ;
#99 = APPROVAL_PERSON_ORGANIZATION ( #84, #44, #195 ) ;
#100 = CC_DESIGN_APPROVAL ( #44, ( #14 ) ) ;
#101 = DIRECTION ( 'NONE',  ( 0.0000000000000000000, 1.000000000000000000, 0.0000000000000000000 ) ) ;
#102 = PRODUCT ( '47040', '47040', '', ( #93 ) ) ;
#103 = CARTESIAN_POINT ( 'NONE',  ( 0.0000000000000000000, 0.0000000000000000000, 0.0000000000000000000 ) ) ;
#104 = CARTESIAN_POINT ( 'NONE',  ( 1.326762908760390423E-13, 0.6749999999999963807, 38.00000000000000000 ) ) ;
#105 = ADVANCED_FACE ( 'NONE', ( #163, #168 ), #76, .T. ) ;
#106 = PERSON_AND_ORGANIZATION ( #12, #167 ) ;
#107 = DATE_AND_TIME ( #171, #202 ) ;
#108 = ADVANCED_FACE ( 'NONE', ( #28 ), #111, .T. ) ;
#109 = PERSON_AND_ORGANIZATION ( #12, #167 ) ;
#110 = ORIENTED_EDGE ( 'NONE', *, *, #58, .T. ) ;
#111 = CONICAL_SURFACE ( 'NONE', #27, 0.9749999999999963141, 1.221730476396026388 ) ;
#112 = EDGE_LOOP ( 'NONE', ( #176 ) ) ;
#113 = AXIS2_PLACEMENT_3D ( 'NONE', #25, #145, #127 ) ;
#114 = DIRECTION ( 'NONE',  ( -3.491481338843133355E-15, 1.224646799147353207E-16, -1.000000000000000000 ) ) ;
#115 = CARTESIAN_POINT ( 'NONE',  ( 4.189777606611760026E-14, 7.311328940476517521E-33, 12.00000000000000000 ) ) ;
#116 = CC_DESIGN_PERSON_AND_ORGANIZATION_ASSIGNMENT ( #106, #125, ( #14 ) ) ;
#117 = DIRECTION ( 'NONE',  ( -3.491481338843133355E-15, 1.224646799147353207E-16, -1.000000000000000000 ) ) ;
#118 = DIRECTION ( 'NONE',  ( -3.491481338843133355E-15, 1.224646799147353207E-16, -1.000000000000000000 ) ) ;
#119 = CARTESIAN_POINT ( 'NONE',  ( 4.189777606611760026E-14, 7.311328940476517521E-33, 12.00000000000000000 ) ) ;
#120 = CARTESIAN_POINT ( 'NONE',  ( 4.189777606611760026E-14, 0.9749999999999963141, 12.00000000000000000 ) ) ;
#121 = AXIS2_PLACEMENT_3D ( 'NONE', #21, #7, #101 ) ;
#122 = APPROVAL_DATE_TIME ( #107, #22 ) ;
#123 = PERSON_AND_ORGANIZATION_ROLE ( 'creator' ) ;
#124 = PERSON_AND_ORGANIZATION_ROLE ( 'design_owner' ) ;
#125 = PERSON_AND_ORGANIZATION_ROLE ( 'classification_officer' ) ;
#126 = PERSON_AND_ORGANIZATION ( #12, #167 ) ;
#127 = DIRECTION ( 'NONE',  ( 0.0000000000000000000, 1.000000000000000000, 0.0000000000000000000 ) ) ;
#128 = ORIENTED_EDGE ( 'NONE', *, *, #94, .T. ) ;
#129 = ADVANCED_FACE ( 'NONE', ( #182 ), #185, .T. ) ;
#130 = APPROVAL_PERSON_ORGANIZATION ( #3, #22, #34 ) ;
#131 = MANIFOLD_SOLID_BREP ( 'Corps-Déplacer/Copier1[1]', #160 ) ;
#132 = DIRECTION ( 'NONE',  ( 0.0000000000000000000, 1.000000000000000000, 0.0000000000000000000 ) ) ;
#133 = VERTEX_POINT ( 'NONE', #104 ) ;
#134 = CARTESIAN_POINT ( 'NONE',  ( 1.326762908760390423E-13, -4.653657836759941941E-15, 38.00000000000000000 ) ) ;
#135 = CARTESIAN_POINT ( 'NONE',  ( 1.316288464743861212E-13, -4.616918432785521081E-15, 37.69999999999999574 ) ) ;
#136 = DIRECTION ( 'NONE',  ( 3.491481338843133355E-15, -1.224646799147353207E-16, 1.000000000000000000 ) ) ;
#137 = MANIFOLD_SOLID_BREP ( 'Corps-Déplacer/Copier1[2]', #61 ) ;
#138 = CIRCLE ( 'NONE', #17, 0.6750000000000010436 ) ;
#139 = APPROVAL_DATE_TIME ( #80, #194 ) ;
#140 = PERSON_AND_ORGANIZATION ( #12, #167 ) ;
#141 = COORDINATED_UNIVERSAL_TIME_OFFSET ( 1, 0, .AHEAD. ) ;
#142 = LOCAL_TIME ( 15, 34, 57.00000000000000000, #170 ) ;
#143 = APPROVAL_DATE_TIME ( #158, #44 ) ;
#144 = ORIENTED_EDGE ( 'NONE', *, *, #58, .F. ) ;
#145 = DIRECTION ( 'NONE',  ( -3.491481338843133355E-15, 1.224646799147353207E-16, -1.000000000000000000 ) ) ;
#146 = CARTESIAN_POINT ( 'NONE',  ( 1.239025398813950764E-15, 0.9749999999999963141, 0.3548709784095507302 ) ) ;
#147 = DIRECTION ( 'NONE',  ( 4.275831445896958607E-31, 1.000000000000000000, 1.224646799147353207E-16 ) ) ;
#148 = FACE_OUTER_BOUND ( 'NONE', #197, .T. ) ;
#149 = DIRECTION ( 'NONE',  ( 3.491481338843133355E-15, -1.224646799147353207E-16, 1.000000000000000000 ) ) ;
#150 = CARTESIAN_POINT ( 'NONE',  ( 1.239025398813950567E-15, -4.345916078195456214E-17, 0.3548709784095506192 ) ) ;
#151 = DATE_AND_TIME ( #81, #66 ) ;
#152 = AXIS2_PLACEMENT_3D ( 'NONE', #87, #200, #147 ) ;
#153 = CONICAL_SURFACE ( 'NONE', #183, 0.6750000000000010436, 0.7853981633974453924 ) ;
#154 = PERSON_AND_ORGANIZATION ( #12, #167 ) ;
#155 = CALENDAR_DATE ( 2021, 15, 10 ) ;
#156 = LOCAL_TIME ( 15, 34, 57.00000000000000000, #141 ) ;
#157 = ORIENTED_EDGE ( 'NONE', *, *, #173, .F. ) ;
#158 = DATE_AND_TIME ( #155, #83 ) ;
#159 = ORIENTED_EDGE ( 'NONE', *, *, #33, .T. ) ;
#160 = CLOSED_SHELL ( 'NONE', ( #180, #67, #193, #20 ) ) ;
#161 = EDGE_LOOP ( 'NONE', ( #54 ) ) ;
#162 = APPLICATION_CONTEXT ( 'configuration controlled 3d designs of mechanical parts and assemblies' ) ;
#163 = FACE_OUTER_BOUND ( 'NONE', #112, .T. ) ;
#164 = UNCERTAINTY_MEASURE_WITH_UNIT (LENGTH_MEASURE( 1.000000000000000082E-05 ), #172, 'distance_accuracy_value', 'NONE');
#165 = FACE_OUTER_BOUND ( 'NONE', #56, .T. ) ;
#166 = DIRECTION ( 'NONE',  ( 0.0000000000000000000, 1.000000000000000000, 0.0000000000000000000 ) ) ;
#167 = ORGANIZATION ( 'UNSPECIFIED', 'UNSPECIFIED', '' ) ;
#168 = FACE_OUTER_BOUND ( 'NONE', #69, .T. ) ;
#169 = COORDINATED_UNIVERSAL_TIME_OFFSET ( 1, 0, .AHEAD. ) ;
#170 = COORDINATED_UNIVERSAL_TIME_OFFSET ( 1, 0, .AHEAD. ) ;
#171 = CALENDAR_DATE ( 2021, 15, 10 ) ;
#172 =( LENGTH_UNIT ( ) NAMED_UNIT ( * ) SI_UNIT ( .MILLI., .METRE. ) );
#173 = EDGE_CURVE ( 'NONE', #133, #133, #138, .T. ) ;
#174 = CIRCLE ( 'NONE', #198, 0.9749999999999963141 ) ;
#175 = APPROVAL_PERSON_ORGANIZATION ( #126, #194, #78 ) ;
#176 = ORIENTED_EDGE ( 'NONE', *, *, #94, .F. ) ;
#177 = DATE_TIME_ROLE ( 'classification_date' ) ;
#178 = PLANE ( 'NONE',  #75 ) ;
#179 = DIRECTION ( 'NONE',  ( 4.275831445896958607E-31, 1.000000000000000000, 1.224646799147353207E-16 ) ) ;
#180 = ADVANCED_FACE ( 'NONE', ( #148 ), #57, .F. ) ;
#181 = CARTESIAN_POINT ( 'NONE',  ( 4.189777606611760026E-14, 0.9749999999999963141, 12.00000000000000000 ) ) ;
#182 = FACE_OUTER_BOUND ( 'NONE', #43, .T. ) ;
#183 = AXIS2_PLACEMENT_3D ( 'NONE', #134, #201, #13 ) ;
#184 = FACE_OUTER_BOUND ( 'NONE', #37, .T. ) ;
#185 = PLANE ( 'NONE',  #4 ) ;
#186 = PERSON_AND_ORGANIZATION ( #12, #167 ) ;
#187 = DIRECTION ( 'NONE',  ( 0.0000000000000000000, 0.0000000000000000000, 1.000000000000000000 ) ) ;
#188 = CC_DESIGN_DATE_AND_TIME_ASSIGNMENT ( #151, #51, ( #38 ) ) ;
#189 = APPLICATION_PROTOCOL_DEFINITION ( 'international standard', 'config_control_design', 1994, #162 ) ;
#190 = CIRCLE ( 'NONE', #113, 0.9749999999999977573 ) ;
#191 = CALENDAR_DATE ( 2021, 15, 10 ) ;
#192 = AXIS2_PLACEMENT_3D ( 'NONE', #115, #63, #59 ) ;
#193 = ADVANCED_FACE ( 'NONE', ( #165, #11 ), #153, .T. ) ;
#194 = APPROVAL ( #16, 'UNSPECIFIED' ) ;
#195 = APPROVAL_ROLE ( '' ) ;
#196 = SHAPE_DEFINITION_REPRESENTATION ( #90, #1 ) ;
#197 = EDGE_LOOP ( 'NONE', ( #41 ) ) ;
#198 = AXIS2_PLACEMENT_3D ( 'NONE', #150, #32, #30 ) ;
#199 = CC_DESIGN_PERSON_AND_ORGANIZATION_ASSIGNMENT ( #154, #124, ( #102 ) ) ;
#200 = DIRECTION ( 'NONE',  ( -3.491481338843133355E-15, 1.224646799147353207E-16, -1.000000000000000000 ) ) ;
#201 = DIRECTION ( 'NONE',  ( -3.491481338843133355E-15, 1.224646799147353207E-16, -1.000000000000000000 ) ) ;
#202 = LOCAL_TIME ( 15, 34, 57.00000000000000000, #64 ) ;
#203 = CYLINDRICAL_SURFACE ( 'NONE', #65, 0.9749999999999993117 ) ;
ENDSEC;
END-ISO-10303-21;
