ISO-10303-21;
HEADER;
FILE_DESCRIPTION (( 'STEP AP203' ),
    '1' );
FILE_NAME ('47039.step',
    '2021-10-15T13:34:56',
    ( '' ),
    ( '' ),
    'SwSTEP 2.0',
    'SolidWorks 2019',
    '' );
FILE_SCHEMA (( 'CONFIG_CONTROL_DESIGN' ));
ENDSEC;

DATA;
#1 = DIRECTION ( 'NONE',  ( 5.312910191413122498E-31, 1.000000000000000000, 1.495451272393815566E-16 ) ) ;
#2 = CC_DESIGN_DATE_AND_TIME_ASSIGNMENT ( #192, #127, ( #42 ) ) ;
#3 = DIRECTION ( 'NONE',  ( 1.000000000000000000, 0.0000000000000000000, 0.0000000000000000000 ) ) ;
#4 = AXIS2_PLACEMENT_3D ( 'NONE', #22, #128, #196 ) ;
#5 = PERSON ( 'UNSPECIFIED', 'UNSPECIFIED', 'UNSPECIFIED', ('UNSPECIFIED'), ('UNSPECIFIED'), ('UNSPECIFIED') ) ;
#6 = CC_DESIGN_PERSON_AND_ORGANIZATION_ASSIGNMENT ( #122, #140, ( #42 ) ) ;
#7 = FACE_OUTER_BOUND ( 'NONE', #165, .T. ) ;
#8 = AXIS2_PLACEMENT_3D ( 'NONE', #27, #87, #75 ) ;
#9 = EDGE_LOOP ( 'NONE', ( #150 ) ) ;
#10 = EDGE_LOOP ( 'NONE', ( #41 ) ) ;
#11 = CARTESIAN_POINT ( 'NONE',  ( 1.040461438975253740E-13, 0.7249999999999920952, 29.80000000000000071 ) ) ;
#12 = DIRECTION ( 'NONE',  ( 0.0000000000000000000, 1.000000000000000000, 0.0000000000000000000 ) ) ;
#13 = CARTESIAN_POINT ( 'NONE',  ( 3.491481338843132724E-14, 0.7249999999999920952, 9.999999999999998224 ) ) ;
#14 = AXIS2_PLACEMENT_3D ( 'NONE', #69, #113, #110 ) ;
#15 = CC_DESIGN_SECURITY_CLASSIFICATION ( #159, ( #191 ) ) ;
#16 = FACE_BOUND ( 'NONE', #84, .T. ) ;
#17 = ADVANCED_FACE ( 'NONE', ( #148 ), #23, .F. ) ;
#18 = PERSON_AND_ORGANIZATION ( #5, #169 ) ;
#19 = ADVANCED_BREP_SHAPE_REPRESENTATION ( '47039', ( #146, #56, #74 ), #176 ) ;
#20 = PERSON_AND_ORGANIZATION ( #5, #169 ) ;
#21 = PERSON_AND_ORGANIZATION_ROLE ( 'design_supplier' ) ;
#22 = CARTESIAN_POINT ( 'NONE',  ( 0.0000000000000000000, 0.0000000000000000000, 0.0000000000000000000 ) ) ;
#23 = PLANE ( 'NONE',  #14 ) ;
#24 = COORDINATED_UNIVERSAL_TIME_OFFSET ( 1, 0, .AHEAD. ) ;
#25 = EDGE_LOOP ( 'NONE', ( #101 ) ) ;
#26 = CARTESIAN_POINT ( 'NONE',  ( 1.047444401652940007E-13, -3.673940397442059178E-15, 30.00000000000000000 ) ) ;
#27 = CARTESIAN_POINT ( 'NONE',  ( 9.213265786052380572E-16, -3.231578622247878276E-17, 0.2638784198429970917 ) ) ;
#28 = DIRECTION ( 'NONE',  ( -3.491481338843133355E-15, 1.224646799147353207E-16, -1.000000000000000000 ) ) ;
#29 = LOCAL_TIME ( 15, 34, 56.00000000000000000, #174 ) ;
#30 = DIRECTION ( 'NONE',  ( 3.491481338843133355E-15, -1.224646799147353207E-16, 1.000000000000000000 ) ) ;
#31 =( NAMED_UNIT ( * ) SI_UNIT ( $, .STERADIAN. ) SOLID_ANGLE_UNIT ( ) );
#32 = PERSON_AND_ORGANIZATION_ROLE ( 'design_owner' ) ;
#33 = APPROVAL_PERSON_ORGANIZATION ( #189, #133, #108 ) ;
#34 = COORDINATED_UNIVERSAL_TIME_OFFSET ( 1, 0, .AHEAD. ) ;
#35 = CALENDAR_DATE ( 2021, 15, 10 ) ;
#36 = DATE_AND_TIME ( #48, #95 ) ;
#37 = ADVANCED_FACE ( 'NONE', ( #178, #7 ), #160, .T. ) ;
#38 = CIRCLE ( 'NONE', #147, 0.7249999999999958700 ) ;
#39 = CALENDAR_DATE ( 2021, 15, 10 ) ;
#40 = CC_DESIGN_APPROVAL ( #133, ( #191 ) ) ;
#41 = ORIENTED_EDGE ( 'NONE', *, *, #130, .T. ) ;
#42 = PRODUCT_DEFINITION ( 'UNKNOWN', '', #191, #167 ) ;
#43 = UNCERTAINTY_MEASURE_WITH_UNIT (LENGTH_MEASURE( 1.000000000000000082E-05 ), #107, 'distance_accuracy_value', 'NONE');
#44 = AXIS2_PLACEMENT_3D ( 'NONE', #59, #184, #201 ) ;
#45 = DIRECTION ( 'NONE',  ( -3.491481338843133355E-15, 1.224646799147353207E-16, -1.000000000000000000 ) ) ;
#46 = DIRECTION ( 'NONE',  ( 3.491481338843133355E-15, -1.224646799147353207E-16, 1.000000000000000000 ) ) ;
#47 = DIRECTION ( 'NONE',  ( -4.275831445896958607E-31, -1.000000000000000000, -1.224646799147353207E-16 ) ) ;
#48 = CALENDAR_DATE ( 2021, 15, 10 ) ;
#49 = CALENDAR_DATE ( 2021, 15, 10 ) ;
#50 = PERSON_AND_ORGANIZATION ( #5, #169 ) ;
#51 = APPLICATION_CONTEXT ( 'configuration controlled 3d designs of mechanical parts and assemblies' ) ;
#52 = APPROVAL_STATUS ( 'not_yet_approved' ) ;
#53 = ORIENTED_EDGE ( 'NONE', *, *, #102, .F. ) ;
#54 = LOCAL_TIME ( 15, 34, 56.00000000000000000, #24 ) ;
#55 = ORIENTED_EDGE ( 'NONE', *, *, #117, .F. ) ;
#56 = MANIFOLD_SOLID_BREP ( 'Corps-Déplacer/Copier1[2]', #82 ) ;
#57 = DIRECTION ( 'NONE',  ( 0.0000000000000000000, 1.000000000000000000, 0.0000000000000000000 ) ) ;
#58 = FACE_OUTER_BOUND ( 'NONE', #80, .T. ) ;
#59 = CARTESIAN_POINT ( 'NONE',  ( 1.047444401652940007E-13, -3.673940397442059178E-15, 30.00000000000000000 ) ) ;
#60 = DIRECTION ( 'NONE',  ( 0.0000000000000000000, 1.000000000000000000, 0.0000000000000000000 ) ) ;
#61 = APPLICATION_PROTOCOL_DEFINITION ( 'international standard', 'config_control_design', 1994, #124 ) ;
#62 = CIRCLE ( 'NONE', #186, 0.7249999999999920952 ) ;
#63 = COORDINATED_UNIVERSAL_TIME_OFFSET ( 1, 0, .AHEAD. ) ;
#64 = APPROVAL_DATE_TIME ( #36, #172 ) ;
#65 = CC_DESIGN_APPROVAL ( #183, ( #159 ) ) ;
#66 = APPLICATION_PROTOCOL_DEFINITION ( 'international standard', 'config_control_design', 1994, #51 ) ;
#67 = ORIENTED_EDGE ( 'NONE', *, *, #117, .T. ) ;
#68 = CC_DESIGN_PERSON_AND_ORGANIZATION_ASSIGNMENT ( #187, #105, ( #159 ) ) ;
#69 = CARTESIAN_POINT ( 'NONE',  ( 1.047444401652940007E-13, 3.936869429487288639E-33, 30.00000000000000000 ) ) ;
#70 = CARTESIAN_POINT ( 'NONE',  ( 1.040461438975253740E-13, -3.649447461459112464E-15, 29.80000000000000071 ) ) ;
#71 = CYLINDRICAL_SURFACE ( 'NONE', #180, 0.7249999999999927613 ) ;
#72 = EDGE_CURVE ( 'NONE', #182, #182, #90, .T. ) ;
#73 = VERTEX_POINT ( 'NONE', #153 ) ;
#74 = AXIS2_PLACEMENT_3D ( 'NONE', #171, #193, #3 ) ;
#75 = DIRECTION ( 'NONE',  ( -5.312910191413122498E-31, -1.000000000000000000, -1.495451272393815566E-16 ) ) ;
#76 = CC_DESIGN_PERSON_AND_ORGANIZATION_ASSIGNMENT ( #50, #32, ( #194 ) ) ;
#77 = PERSON_AND_ORGANIZATION ( #5, #169 ) ;
#78 = APPROVAL_ROLE ( '' ) ;
#79 = CIRCLE ( 'NONE', #111, 0.7249999999999933165 ) ;
#80 = EDGE_LOOP ( 'NONE', ( #83 ) ) ;
#81 = ADVANCED_FACE ( 'NONE', ( #168, #16 ), #197, .T. ) ;
#82 = CLOSED_SHELL ( 'NONE', ( #120, #109, #137 ) ) ;
#83 = ORIENTED_EDGE ( 'NONE', *, *, #92, .T. ) ;
#84 = EDGE_LOOP ( 'NONE', ( #195 ) ) ;
#85 = LOCAL_TIME ( 15, 34, 56.00000000000000000, #63 ) ;
#86 = PLANE ( 'NONE',  #202 ) ;
#87 = DIRECTION ( 'NONE',  ( 3.491481338843133355E-15, -1.224646799147353207E-16, 1.000000000000000000 ) ) ;
#88 = PRODUCT_RELATED_PRODUCT_CATEGORY ( 'detail', '', ( #194 ) ) ;
#89 = CARTESIAN_POINT ( 'NONE',  ( 3.491481338843132724E-14, 0.7249999999999920952, 9.999999999999998224 ) ) ;
#90 = CIRCLE ( 'NONE', #141, 0.7249999999999933165 ) ;
#91 = CC_DESIGN_APPROVAL ( #172, ( #42 ) ) ;
#92 = EDGE_CURVE ( 'NONE', #155, #155, #79, .T. ) ;
#93 =( NAMED_UNIT ( * ) PLANE_ANGLE_UNIT ( ) SI_UNIT ( $, .RADIAN. ) );
#94 = APPROVAL_DATE_TIME ( #158, #133 ) ;
#95 = LOCAL_TIME ( 15, 34, 56.00000000000000000, #34 ) ;
#96 = SHAPE_DEFINITION_REPRESENTATION ( #112, #19 ) ;
#97 = CC_DESIGN_PERSON_AND_ORGANIZATION_ASSIGNMENT ( #18, #21, ( #191 ) ) ;
#98 = ORIENTED_EDGE ( 'NONE', *, *, #72, .F. ) ;
#99 = APPROVAL_DATE_TIME ( #145, #183 ) ;
#100 = ADVANCED_FACE ( 'NONE', ( #118 ), #119, .F. ) ;
#101 = ORIENTED_EDGE ( 'NONE', *, *, #72, .T. ) ;
#102 = EDGE_CURVE ( 'NONE', #73, #73, #114, .T. ) ;
#103 = FACE_OUTER_BOUND ( 'NONE', #10, .T. ) ;
#104 = CARTESIAN_POINT ( 'NONE',  ( 3.491481338843132724E-14, -1.224646799147353059E-15, 9.999999999999998224 ) ) ;
#105 = PERSON_AND_ORGANIZATION_ROLE ( 'classification_officer' ) ;
#106 = DATE_AND_TIME ( #49, #85 ) ;
#107 =( LENGTH_UNIT ( ) NAMED_UNIT ( * ) SI_UNIT ( .MILLI., .METRE. ) );
#108 = APPROVAL_ROLE ( '' ) ;
#109 = ADVANCED_FACE ( 'NONE', ( #121, #58 ), #71, .T. ) ;
#110 = DIRECTION ( 'NONE',  ( 4.275831445896958607E-31, 1.000000000000000000, 1.224646799147353207E-16 ) ) ;
#111 = AXIS2_PLACEMENT_3D ( 'NONE', #104, #200, #57 ) ;
#112 = PRODUCT_DEFINITION_SHAPE ( 'NONE', 'NONE',  #42 ) ;
#113 = DIRECTION ( 'NONE',  ( -3.491481338843133355E-15, 1.224646799147353207E-16, -1.000000000000000000 ) ) ;
#114 = CIRCLE ( 'NONE', #44, 0.5249999999999956923 ) ;
#115 = CARTESIAN_POINT ( 'NONE',  ( 3.491481338843132724E-14, 5.436629212149164721E-33, 9.999999999999998224 ) ) ;
#116 = DIRECTION ( 'NONE',  ( -3.491481338843133355E-15, 1.224646799147353207E-16, -1.000000000000000000 ) ) ;
#117 = EDGE_CURVE ( 'NONE', #138, #138, #38, .T. ) ;
#118 = FACE_OUTER_BOUND ( 'NONE', #25, .T. ) ;
#119 = PLANE ( 'NONE',  #143 ) ;
#120 = ADVANCED_FACE ( 'NONE', ( #103 ), #144, .T. ) ;
#121 = FACE_OUTER_BOUND ( 'NONE', #177, .T. ) ;
#122 = PERSON_AND_ORGANIZATION ( #5, #169 ) ;
#123 = CALENDAR_DATE ( 2021, 15, 10 ) ;
#124 = APPLICATION_CONTEXT ( 'configuration controlled 3d designs of mechanical parts and assemblies' ) ;
#125 = CC_DESIGN_DATE_AND_TIME_ASSIGNMENT ( #106, #173, ( #159 ) ) ;
#126 = COORDINATED_UNIVERSAL_TIME_OFFSET ( 1, 0, .AHEAD. ) ;
#127 = DATE_TIME_ROLE ( 'creation_date' ) ;
#128 = DIRECTION ( 'NONE',  ( -3.491481338843133355E-15, 1.224646799147353207E-16, -1.000000000000000000 ) ) ;
#129 = ORIENTED_EDGE ( 'NONE', *, *, #130, .F. ) ;
#130 = EDGE_CURVE ( 'NONE', #136, #136, #62, .T. ) ;
#131 = AXIS2_PLACEMENT_3D ( 'NONE', #26, #170, #12 ) ;
#132 = DIRECTION ( 'NONE',  ( 4.275831445896958607E-31, 1.000000000000000000, 1.224646799147353207E-16 ) ) ;
#133 = APPROVAL ( #52, 'UNSPECIFIED' ) ;
#134 = CARTESIAN_POINT ( 'NONE',  ( 9.213265786052380572E-16, -3.231578622247878276E-17, 0.2638784198429970917 ) ) ;
#135 = CARTESIAN_POINT ( 'NONE',  ( 0.0000000000000000000, 0.0000000000000000000, 0.0000000000000000000 ) ) ;
#136 = VERTEX_POINT ( 'NONE', #157 ) ;
#137 = ADVANCED_FACE ( 'NONE', ( #181 ), #86, .T. ) ;
#138 = VERTEX_POINT ( 'NONE', #11 ) ;
#139 = PERSON_AND_ORGANIZATION_ROLE ( 'creator' ) ;
#140 = PERSON_AND_ORGANIZATION_ROLE ( 'creator' ) ;
#141 = AXIS2_PLACEMENT_3D ( 'NONE', #166, #203, #60 ) ;
#142 = SECURITY_CLASSIFICATION_LEVEL ( 'unclassified' ) ;
#143 = AXIS2_PLACEMENT_3D ( 'NONE', #115, #46, #47 ) ;
#144 = CONICAL_SURFACE ( 'NONE', #8, 0.7249999999999920952, 1.221730476396026832 ) ;
#145 = DATE_AND_TIME ( #39, #54 ) ;
#146 = MANIFOLD_SOLID_BREP ( 'Corps-Déplacer/Copier1[1]', #190 ) ;
#147 = AXIS2_PLACEMENT_3D ( 'NONE', #70, #116, #185 ) ;
#148 = FACE_OUTER_BOUND ( 'NONE', #151, .T. ) ;
#149 = APPROVAL_STATUS ( 'not_yet_approved' ) ;
#150 = ORIENTED_EDGE ( 'NONE', *, *, #92, .F. ) ;
#151 = EDGE_LOOP ( 'NONE', ( #53 ) ) ;
#152 = APPROVAL_PERSON_ORGANIZATION ( #161, #183, #163 ) ;
#153 = CARTESIAN_POINT ( 'NONE',  ( 1.047444401652940007E-13, 0.5249999999999920286, 30.00000000000000000 ) ) ;
#154 = DIRECTION ( 'NONE',  ( -4.275831445896958607E-31, -1.000000000000000000, -1.224646799147353207E-16 ) ) ;
#155 = VERTEX_POINT ( 'NONE', #13 ) ;
#156 = CARTESIAN_POINT ( 'NONE',  ( 3.491481338843132724E-14, 5.436629212149164721E-33, 9.999999999999998224 ) ) ;
#157 = CARTESIAN_POINT ( 'NONE',  ( 9.213265786052382544E-16, 0.7249999999999920952, 0.2638784198429972028 ) ) ;
#158 = DATE_AND_TIME ( #35, #29 ) ;
#159 = SECURITY_CLASSIFICATION ( '', '', #142 ) ;
#160 = CYLINDRICAL_SURFACE ( 'NONE', #4, 0.7249999999999945377 ) ;
#161 = PERSON_AND_ORGANIZATION ( #5, #169 ) ;
#162 = EDGE_LOOP ( 'NONE', ( #55 ) ) ;
#163 = APPROVAL_ROLE ( '' ) ;
#164 = LOCAL_TIME ( 15, 34, 56.00000000000000000, #126 ) ;
#165 = EDGE_LOOP ( 'NONE', ( #67 ) ) ;
#166 = CARTESIAN_POINT ( 'NONE',  ( 3.491481338843132724E-14, -1.224646799147353059E-15, 9.999999999999998224 ) ) ;
#167 = DESIGN_CONTEXT ( 'detailed design', #124, 'design' ) ;
#168 = FACE_OUTER_BOUND ( 'NONE', #162, .T. ) ;
#169 = ORGANIZATION ( 'UNSPECIFIED', 'UNSPECIFIED', '' ) ;
#170 = DIRECTION ( 'NONE',  ( -3.491481338843133355E-15, 1.224646799147353207E-16, -1.000000000000000000 ) ) ;
#171 = CARTESIAN_POINT ( 'NONE',  ( 0.0000000000000000000, 0.0000000000000000000, 0.0000000000000000000 ) ) ;
#172 = APPROVAL ( #175, 'UNSPECIFIED' ) ;
#173 = DATE_TIME_ROLE ( 'classification_date' ) ;
#174 = COORDINATED_UNIVERSAL_TIME_OFFSET ( 1, 0, .AHEAD. ) ;
#175 = APPROVAL_STATUS ( 'not_yet_approved' ) ;
#176 =( GEOMETRIC_REPRESENTATION_CONTEXT ( 3 ) GLOBAL_UNCERTAINTY_ASSIGNED_CONTEXT ( ( #43 ) ) GLOBAL_UNIT_ASSIGNED_CONTEXT ( ( #107, #93, #31 ) ) REPRESENTATION_CONTEXT ( 'NONE', 'WORKASPACE' ) );
#177 = EDGE_LOOP ( 'NONE', ( #129 ) ) ;
#178 = FACE_OUTER_BOUND ( 'NONE', #198, .T. ) ;
#179 = CC_DESIGN_PERSON_AND_ORGANIZATION_ASSIGNMENT ( #77, #139, ( #191 ) ) ;
#180 = AXIS2_PLACEMENT_3D ( 'NONE', #135, #45, #132 ) ;
#181 = FACE_OUTER_BOUND ( 'NONE', #9, .T. ) ;
#182 = VERTEX_POINT ( 'NONE', #89 ) ;
#183 = APPROVAL ( #149, 'UNSPECIFIED' ) ;
#184 = DIRECTION ( 'NONE',  ( -3.491481338843133355E-15, 1.224646799147353207E-16, -1.000000000000000000 ) ) ;
#185 = DIRECTION ( 'NONE',  ( 0.0000000000000000000, 1.000000000000000000, 0.0000000000000000000 ) ) ;
#186 = AXIS2_PLACEMENT_3D ( 'NONE', #134, #28, #1 ) ;
#187 = PERSON_AND_ORGANIZATION ( #5, #169 ) ;
#188 = MECHANICAL_CONTEXT ( 'NONE', #51, 'mechanical' ) ;
#189 = PERSON_AND_ORGANIZATION ( #5, #169 ) ;
#190 = CLOSED_SHELL ( 'NONE', ( #100, #37, #81, #17 ) ) ;
#191 = PRODUCT_DEFINITION_FORMATION_WITH_SPECIFIED_SOURCE ( 'ANY', '', #194, .NOT_KNOWN. ) ;
#192 = DATE_AND_TIME ( #123, #164 ) ;
#193 = DIRECTION ( 'NONE',  ( 0.0000000000000000000, 0.0000000000000000000, 1.000000000000000000 ) ) ;
#194 = PRODUCT ( '47039', '47039', '', ( #188 ) ) ;
#195 = ORIENTED_EDGE ( 'NONE', *, *, #102, .T. ) ;
#196 = DIRECTION ( 'NONE',  ( 4.275831445896958607E-31, 1.000000000000000000, 1.224646799147353207E-16 ) ) ;
#197 = CONICAL_SURFACE ( 'NONE', #131, 0.5249999999999956923, 0.7853981633974516097 ) ;
#198 = EDGE_LOOP ( 'NONE', ( #98 ) ) ;
#199 = APPROVAL_PERSON_ORGANIZATION ( #20, #172, #78 ) ;
#200 = DIRECTION ( 'NONE',  ( -3.491481338843133355E-15, 1.224646799147353207E-16, -1.000000000000000000 ) ) ;
#201 = DIRECTION ( 'NONE',  ( 0.0000000000000000000, 1.000000000000000000, 0.0000000000000000000 ) ) ;
#202 = AXIS2_PLACEMENT_3D ( 'NONE', #156, #30, #154 ) ;
#203 = DIRECTION ( 'NONE',  ( -3.491481338843133355E-15, 1.224646799147353207E-16, -1.000000000000000000 ) ) ;
ENDSEC;
END-ISO-10303-21;
