ISO-10303-21;
HEADER;
FILE_DESCRIPTION (( 'STEP AP203' ),
    '1' );
FILE_NAME ('4690.step',
    '2021-12-06T12:59:45',
    ( '' ),
    ( '' ),
    'SwSTEP 2.0',
    'SolidWorks 2019',
    '' );
FILE_SCHEMA (( 'CONFIG_CONTROL_DESIGN' ));
ENDSEC;

DATA;
#1 = APPLICATION_CONTEXT ( 'configuration controlled 3d designs of mechanical parts and assemblies' ) ;
#2 = CALENDAR_DATE ( 2021, 6, 12 ) ;
#3 = PERSON_AND_ORGANIZATION ( #157, #19 ) ;
#4 = ORIENTED_EDGE ( 'NONE', *, *, #113, .F. ) ;
#5 = DIRECTION ( 'NONE',  ( -3.491481338843133355E-15, 5.510910596163087583E-16, -1.000000000000000000 ) ) ;
#6 = CIRCLE ( 'NONE', #83, 5.000000000000000888 ) ;
#7 = ORIENTED_EDGE ( 'NONE', *, *, #113, .T. ) ;
#8 =( GEOMETRIC_REPRESENTATION_CONTEXT ( 3 ) GLOBAL_UNCERTAINTY_ASSIGNED_CONTEXT ( ( #126 ) ) GLOBAL_UNIT_ASSIGNED_CONTEXT ( ( #58, #26, #98 ) ) REPRESENTATION_CONTEXT ( 'NONE', 'WORKASPACE' ) );
#9 = FACE_BOUND ( 'NONE', #23, .T. ) ;
#10 = PLANE ( 'NONE',  #88 ) ;
#11 = CC_DESIGN_APPROVAL ( #31, ( #104 ) ) ;
#12 = MECHANICAL_CONTEXT ( 'NONE', #1, 'mechanical' ) ;
#13 = CC_DESIGN_DATE_AND_TIME_ASSIGNMENT ( #25, #72, ( #16 ) ) ;
#14 = PERSON_AND_ORGANIZATION_ROLE ( 'design_supplier' ) ;
#15 = DATE_AND_TIME ( #116, #30 ) ;
#16 = PRODUCT_DEFINITION ( 'UNKNOWN', '', #141, #63 ) ;
#17 = APPROVAL_ROLE ( '' ) ;
#18 = SECURITY_CLASSIFICATION_LEVEL ( 'unclassified' ) ;
#19 = ORGANIZATION ( 'UNSPECIFIED', 'UNSPECIFIED', '' ) ;
#20 = DIRECTION ( 'NONE',  ( -3.491481338843133355E-15, 5.510910596163087583E-16, -1.000000000000000000 ) ) ;
#21 = CIRCLE ( 'NONE', #154, 20.00000000000000000 ) ;
#22 = ADVANCED_BREP_SHAPE_REPRESENTATION ( '4690', ( #35, #37 ), #8 ) ;
#23 = EDGE_LOOP ( 'NONE', ( #64 ) ) ;
#24 = EDGE_LOOP ( 'NONE', ( #119 ) ) ;
#25 = DATE_AND_TIME ( #133, #93 ) ;
#26 =( NAMED_UNIT ( * ) PLANE_ANGLE_UNIT ( ) SI_UNIT ( $, .RADIAN. ) );
#27 = LOCAL_TIME ( 13, 59, 45.00000000000000000, #152 ) ;
#28 = DIRECTION ( 'NONE',  ( 1.000000000000000000, 0.0000000000000000000, 0.0000000000000000000 ) ) ;
#29 = PRODUCT_DEFINITION_SHAPE ( 'NONE', 'NONE',  #16 ) ;
#30 = LOCAL_TIME ( 13, 59, 45.00000000000000000, #151 ) ;
#31 = APPROVAL ( #106, 'UNSPECIFIED' ) ;
#32 = DATE_TIME_ROLE ( 'classification_date' ) ;
#33 = CC_DESIGN_PERSON_AND_ORGANIZATION_ASSIGNMENT ( #59, #130, ( #16 ) ) ;
#34 = EDGE_LOOP ( 'NONE', ( #139 ) ) ;
#35 = MANIFOLD_SOLID_BREP ( 'Corps-Déplacer/Copier1', #57 ) ;
#36 = CARTESIAN_POINT ( 'NONE',  ( 0.0000000000000000000, 0.0000000000000000000, 0.0000000000000000000 ) ) ;
#37 = AXIS2_PLACEMENT_3D ( 'NONE', #36, #134, #28 ) ;
#38 = COORDINATED_UNIVERSAL_TIME_OFFSET ( 1, 0, .AHEAD. ) ;
#39 = APPROVAL ( #82, 'UNSPECIFIED' ) ;
#40 = PERSON_AND_ORGANIZATION ( #157, #19 ) ;
#41 = AXIS2_PLACEMENT_3D ( 'NONE', #71, #148, #121 ) ;
#42 = DIRECTION ( 'NONE',  ( 1.925929944387235503E-30, 1.000000000000000000, 5.529431079676071627E-16 ) ) ;
#43 = DIRECTION ( 'NONE',  ( 1.924124150653630585E-30, 1.000000000000000000, 5.510910596163087583E-16 ) ) ;
#44 = FACE_OUTER_BOUND ( 'NONE', #140, .T. ) ;
#45 = COORDINATED_UNIVERSAL_TIME_OFFSET ( 1, 0, .AHEAD. ) ;
#46 = APPLICATION_PROTOCOL_DEFINITION ( 'international standard', 'config_control_design', 1994, #85 ) ;
#47 = CIRCLE ( 'NONE', #77, 20.00000000000000000 ) ;
#48 = DIRECTION ( 'NONE',  ( 1.924124150653630585E-30, 1.000000000000000000, 5.510910596163087583E-16 ) ) ;
#49 = APPROVAL_PERSON_ORGANIZATION ( #100, #39, #147 ) ;
#50 = FACE_OUTER_BOUND ( 'NONE', #51, .T. ) ;
#51 = EDGE_LOOP ( 'NONE', ( #4 ) ) ;
#52 = CC_DESIGN_PERSON_AND_ORGANIZATION_ASSIGNMENT ( #150, #101, ( #141 ) ) ;
#53 = EDGE_LOOP ( 'NONE', ( #129 ) ) ;
#54 = DIRECTION ( 'NONE',  ( -1.924124150653630585E-30, -1.000000000000000000, -5.510910596163087583E-16 ) ) ;
#55 = DIRECTION ( 'NONE',  ( -3.491481338843133355E-15, 5.510910596163087583E-16, -1.000000000000000000 ) ) ;
#56 = ADVANCED_FACE ( 'NONE', ( #96, #117 ), #142, .F. ) ;
#57 = CLOSED_SHELL ( 'NONE', ( #144, #90, #162, #56 ) ) ;
#58 =( LENGTH_UNIT ( ) NAMED_UNIT ( * ) SI_UNIT ( .MILLI., .METRE. ) );
#59 = PERSON_AND_ORGANIZATION ( #157, #19 ) ;
#60 = APPROVAL_DATE_TIME ( #137, #31 ) ;
#61 = SHAPE_DEFINITION_REPRESENTATION ( #29, #22 ) ;
#62 = LOCAL_TIME ( 13, 59, 45.00000000000000000, #138 ) ;
#63 = DESIGN_CONTEXT ( 'detailed design', #85, 'design' ) ;
#64 = ORIENTED_EDGE ( 'NONE', *, *, #127, .T. ) ;
#65 = CC_DESIGN_DATE_AND_TIME_ASSIGNMENT ( #15, #32, ( #104 ) ) ;
#66 = CC_DESIGN_APPROVAL ( #78, ( #141 ) ) ;
#67 = CARTESIAN_POINT ( 'NONE',  ( 1.396592535537243876E-15, -2.204364238465220045E-16, 0.3999999999999973022 ) ) ;
#68 = CARTESIAN_POINT ( 'NONE',  ( 0.0000000000000000000, 0.0000000000000000000, 0.0000000000000000000 ) ) ;
#69 = VERTEX_POINT ( 'NONE', #122 ) ;
#70 = CC_DESIGN_PERSON_AND_ORGANIZATION_ASSIGNMENT ( #111, #120, ( #166 ) ) ;
#71 = CARTESIAN_POINT ( 'NONE',  ( -1.443093112990223534E-29, 5.000000000000000000, -4.133182947122316772E-15 ) ) ;
#72 = DATE_TIME_ROLE ( 'creation_date' ) ;
#73 = LOCAL_TIME ( 13, 59, 45.00000000000000000, #38 ) ;
#74 = CARTESIAN_POINT ( 'NONE',  ( 1.396592535537253737E-15, 20.00000000000000000, 0.4000000000000000777 ) ) ;
#75 = AXIS2_PLACEMENT_3D ( 'NONE', #80, #79, #48 ) ;
#76 = EDGE_CURVE ( 'NONE', #143, #143, #164, .T. ) ;
#77 = AXIS2_PLACEMENT_3D ( 'NONE', #132, #55, #124 ) ;
#78 = APPROVAL ( #165, 'UNSPECIFIED' ) ;
#79 = DIRECTION ( 'NONE',  ( -3.491481338843133355E-15, 5.510910596163087583E-16, -1.000000000000000000 ) ) ;
#80 = CARTESIAN_POINT ( 'NONE',  ( -9.620620753268153624E-30, 1.518506779945129969E-30, -2.755455298081543989E-15 ) ) ;
#81 = EDGE_LOOP ( 'NONE', ( #105 ) ) ;
#82 = APPROVAL_STATUS ( 'not_yet_approved' ) ;
#83 = AXIS2_PLACEMENT_3D ( 'NONE', #67, #156, #42 ) ;
#84 = APPROVAL_DATE_TIME ( #136, #39 ) ;
#85 = APPLICATION_CONTEXT ( 'configuration controlled 3d designs of mechanical parts and assemblies' ) ;
#86 = CARTESIAN_POINT ( 'NONE',  ( 1.396592535537253539E-15, 5.000000000000000888, 0.4000000000000000777 ) ) ;
#87 = CALENDAR_DATE ( 2021, 6, 12 ) ;
#88 = AXIS2_PLACEMENT_3D ( 'NONE', #161, #99, #54 ) ;
#89 = PERSON_AND_ORGANIZATION ( #157, #19 ) ;
#90 = ADVANCED_FACE ( 'NONE', ( #128, #50 ), #158, .T. ) ;
#91 = AXIS2_PLACEMENT_3D ( 'NONE', #94, #5, #160 ) ;
#92 = APPROVAL_ROLE ( '' ) ;
#93 = LOCAL_TIME ( 13, 59, 45.00000000000000000, #45 ) ;
#94 = CARTESIAN_POINT ( 'NONE',  ( 0.0000000000000000000, 0.0000000000000000000, 0.0000000000000000000 ) ) ;
#95 = DIRECTION ( 'NONE',  ( -3.491481338843133355E-15, 5.510910596163087583E-16, -1.000000000000000000 ) ) ;
#96 = FACE_OUTER_BOUND ( 'NONE', #81, .T. ) ;
#97 = CC_DESIGN_PERSON_AND_ORGANIZATION_ASSIGNMENT ( #3, #125, ( #104 ) ) ;
#98 =( NAMED_UNIT ( * ) SI_UNIT ( $, .STERADIAN. ) SOLID_ANGLE_UNIT ( ) );
#99 = DIRECTION ( 'NONE',  ( 3.491481338843133355E-15, -5.510910596163087583E-16, 1.000000000000000000 ) ) ;
#100 = PERSON_AND_ORGANIZATION ( #157, #19 ) ;
#101 = PERSON_AND_ORGANIZATION_ROLE ( 'creator' ) ;
#102 = CALENDAR_DATE ( 2021, 6, 12 ) ;
#103 = CARTESIAN_POINT ( 'NONE',  ( -3.848248301307261450E-29, 6.074027119780519874E-30, -1.102182119232617596E-14 ) ) ;
#104 = SECURITY_CLASSIFICATION ( '', '', #18 ) ;
#105 = ORIENTED_EDGE ( 'NONE', *, *, #76, .T. ) ;
#106 = APPROVAL_STATUS ( 'not_yet_approved' ) ;
#107 = EDGE_LOOP ( 'NONE', ( #108 ) ) ;
#108 = ORIENTED_EDGE ( 'NONE', *, *, #127, .F. ) ;
#109 = FACE_OUTER_BOUND ( 'NONE', #24, .T. ) ;
#110 = PERSON_AND_ORGANIZATION ( #157, #19 ) ;
#111 = PERSON_AND_ORGANIZATION ( #157, #19 ) ;
#112 = VERTEX_POINT ( 'NONE', #86 ) ;
#113 = EDGE_CURVE ( 'NONE', #69, #69, #21, .T. ) ;
#114 = DATE_AND_TIME ( #102, #27 ) ;
#115 = AXIS2_PLACEMENT_3D ( 'NONE', #68, #20, #43 ) ;
#116 = CALENDAR_DATE ( 2021, 6, 12 ) ;
#117 = FACE_OUTER_BOUND ( 'NONE', #107, .T. ) ;
#118 = APPROVAL_PERSON_ORGANIZATION ( #89, #31, #92 ) ;
#119 = ORIENTED_EDGE ( 'NONE', *, *, #159, .F. ) ;
#120 = PERSON_AND_ORGANIZATION_ROLE ( 'design_owner' ) ;
#121 = DIRECTION ( 'NONE',  ( 1.924124150653630585E-30, 1.000000000000000000, 5.510910596163087583E-16 ) ) ;
#122 = CARTESIAN_POINT ( 'NONE',  ( -5.473822126268816683E-45, 20.00000000000000000, 0.0000000000000000000 ) ) ;
#123 = APPLICATION_PROTOCOL_DEFINITION ( 'international standard', 'config_control_design', 1994, #1 ) ;
#124 = DIRECTION ( 'NONE',  ( 1.925929944387235853E-30, 1.000000000000000000, 5.502326025363935003E-16 ) ) ;
#125 = PERSON_AND_ORGANIZATION_ROLE ( 'classification_officer' ) ;
#126 = UNCERTAINTY_MEASURE_WITH_UNIT (LENGTH_MEASURE( 1.000000000000000082E-05 ), #58, 'distance_accuracy_value', 'NONE');
#127 = EDGE_CURVE ( 'NONE', #112, #112, #6, .T. ) ;
#128 = FACE_OUTER_BOUND ( 'NONE', #34, .T. ) ;
#129 = ORIENTED_EDGE ( 'NONE', *, *, #76, .F. ) ;
#130 = PERSON_AND_ORGANIZATION_ROLE ( 'creator' ) ;
#131 = CC_DESIGN_APPROVAL ( #39, ( #16 ) ) ;
#132 = CARTESIAN_POINT ( 'NONE',  ( 1.396592535537215082E-15, -2.204364238465174932E-16, 0.3999999999999890865 ) ) ;
#133 = CALENDAR_DATE ( 2021, 6, 12 ) ;
#134 = DIRECTION ( 'NONE',  ( 0.0000000000000000000, 0.0000000000000000000, 1.000000000000000000 ) ) ;
#135 = APPROVAL_PERSON_ORGANIZATION ( #110, #78, #17 ) ;
#136 = DATE_AND_TIME ( #87, #73 ) ;
#137 = DATE_AND_TIME ( #2, #62 ) ;
#138 = COORDINATED_UNIVERSAL_TIME_OFFSET ( 1, 0, .AHEAD. ) ;
#139 = ORIENTED_EDGE ( 'NONE', *, *, #159, .T. ) ;
#140 = EDGE_LOOP ( 'NONE', ( #7 ) ) ;
#141 = PRODUCT_DEFINITION_FORMATION_WITH_SPECIFIED_SOURCE ( 'ANY', '', #166, .NOT_KNOWN. ) ;
#142 = CYLINDRICAL_SURFACE ( 'NONE', #91, 5.000000000000000888 ) ;
#143 = VERTEX_POINT ( 'NONE', #167 ) ;
#144 = ADVANCED_FACE ( 'NONE', ( #44, #168 ), #146, .T. ) ;
#145 = CC_DESIGN_SECURITY_CLASSIFICATION ( #104, ( #141 ) ) ;
#146 = PLANE ( 'NONE',  #41 ) ;
#147 = APPROVAL_ROLE ( '' ) ;
#148 = DIRECTION ( 'NONE',  ( -3.491481338843133355E-15, 5.510910596163087583E-16, -1.000000000000000000 ) ) ;
#149 = CC_DESIGN_PERSON_AND_ORGANIZATION_ASSIGNMENT ( #40, #14, ( #141 ) ) ;
#150 = PERSON_AND_ORGANIZATION ( #157, #19 ) ;
#151 = COORDINATED_UNIVERSAL_TIME_OFFSET ( 1, 0, .AHEAD. ) ;
#152 = COORDINATED_UNIVERSAL_TIME_OFFSET ( 1, 0, .AHEAD. ) ;
#153 = DIRECTION ( 'NONE',  ( 1.924124150653630585E-30, 1.000000000000000000, 5.510910596163087583E-16 ) ) ;
#154 = AXIS2_PLACEMENT_3D ( 'NONE', #103, #95, #153 ) ;
#155 = PRODUCT_RELATED_PRODUCT_CATEGORY ( 'detail', '', ( #166 ) ) ;
#156 = DIRECTION ( 'NONE',  ( -3.491481338843133355E-15, 5.510910596163087583E-16, -1.000000000000000000 ) ) ;
#157 = PERSON ( 'UNSPECIFIED', 'UNSPECIFIED', 'UNSPECIFIED', ('UNSPECIFIED'), ('UNSPECIFIED'), ('UNSPECIFIED') ) ;
#158 = CYLINDRICAL_SURFACE ( 'NONE', #115, 20.00000000000000000 ) ;
#159 = EDGE_CURVE ( 'NONE', #163, #163, #47, .T. ) ;
#160 = DIRECTION ( 'NONE',  ( 1.924124150653630234E-30, 1.000000000000000000, 5.510910596163087583E-16 ) ) ;
#161 = CARTESIAN_POINT ( 'NONE',  ( 1.396592535537239340E-15, 5.000000000000000888, 0.3999999999999959699 ) ) ;
#162 = ADVANCED_FACE ( 'NONE', ( #9, #109 ), #10, .T. ) ;
#163 = VERTEX_POINT ( 'NONE', #74 ) ;
#164 = CIRCLE ( 'NONE', #75, 5.000000000000000000 ) ;
#165 = APPROVAL_STATUS ( 'not_yet_approved' ) ;
#166 = PRODUCT ( '4690', '4690', '', ( #12 ) ) ;
#167 = CARTESIAN_POINT ( 'NONE',  ( -1.368455531567204171E-45, 5.000000000000000000, 0.0000000000000000000 ) ) ;
#168 = FACE_BOUND ( 'NONE', #53, .T. ) ;
#169 = APPROVAL_DATE_TIME ( #114, #78 ) ;
ENDSEC;
END-ISO-10303-21;
