ISO-10303-21;
HEADER;
FILE_DESCRIPTION (( 'STEP AP203' ),
    '1' );
FILE_NAME ('46797.step',
    '2021-10-08T05:53:54',
    ( '' ),
    ( '' ),
    'SwSTEP 2.0',
    'SolidWorks 2019',
    '' );
FILE_SCHEMA (( 'CONFIG_CONTROL_DESIGN' ));
ENDSEC;

DATA;
#1 = CARTESIAN_POINT ( 'NONE',  ( 3.573121550322624079E-14, 0.7499999999999963363, 10.23382685902179645 ) ) ;
#2 = APPROVAL ( #165, 'UNSPECIFIED' ) ;
#3 = PERSON_AND_ORGANIZATION ( #138, #205 ) ;
#4 = UNCERTAINTY_MEASURE_WITH_UNIT (LENGTH_MEASURE( 1.000000000000000082E-05 ), #206, 'distance_accuracy_value', 'NONE');
#5 = ADVANCED_FACE ( 'NONE', ( #11, #214 ), #114, .T. ) ;
#6 = DATE_AND_TIME ( #37, #150 ) ;
#7 = CARTESIAN_POINT ( 'NONE',  ( 1.239721729873770068E-15, -4.348358478772163020E-17, 0.3550704155516234972 ) ) ;
#8 = APPROVAL_PERSON_ORGANIZATION ( #164, #2, #32 ) ;
#9 = APPROVAL_DATE_TIME ( #155, #171 ) ;
#10 = DIRECTION ( 'NONE',  ( 0.0000000000000000000, -1.000000000000000000, 0.0000000000000000000 ) ) ;
#11 = FACE_BOUND ( 'NONE', #213, .T. ) ;
#12 = DIRECTION ( 'NONE',  ( -3.491481338843133355E-15, 1.224646799147353207E-16, -1.000000000000000000 ) ) ;
#13 = EDGE_CURVE ( 'NONE', #182, #182, #83, .T. ) ;
#14 = CARTESIAN_POINT ( 'NONE',  ( 3.491481338843133355E-14, 4.611761331685203386E-33, 10.00000000000000000 ) ) ;
#15 = COORDINATED_UNIVERSAL_TIME_OFFSET ( 1, 0, .AHEAD. ) ;
#16 = PERSON_AND_ORGANIZATION ( #138, #205 ) ;
#17 = VERTEX_POINT ( 'NONE', #131 ) ;
#18 = PERSON_AND_ORGANIZATION_ROLE ( 'design_supplier' ) ;
#19 = AXIS2_PLACEMENT_3D ( 'NONE', #59, #12, #44 ) ;
#20 = ORIENTED_EDGE ( 'NONE', *, *, #222, .T. ) ;
#21 = DIRECTION ( 'NONE',  ( 0.0000000000000000000, 1.000000000000000000, 0.0000000000000000000 ) ) ;
#22 = COORDINATED_UNIVERSAL_TIME_OFFSET ( 1, 0, .AHEAD. ) ;
#23 = DIRECTION ( 'NONE',  ( -3.491481338843133355E-15, 1.224646799147353207E-16, -1.000000000000000000 ) ) ;
#24 = CALENDAR_DATE ( 2021, 8, 10 ) ;
#25 = EDGE_LOOP ( 'NONE', ( #20 ) ) ;
#26 = CARTESIAN_POINT ( 'NONE',  ( 3.573121550322624079E-14, -1.253282330592925506E-15, 10.23382685902179645 ) ) ;
#27 = ORIENTED_EDGE ( 'NONE', *, *, #51, .T. ) ;
#28 = CC_DESIGN_PERSON_AND_ORGANIZATION_ASSIGNMENT ( #105, #142, ( #36 ) ) ;
#29 = CIRCLE ( 'NONE', #101, 0.5500000000000000444 ) ;
#30 = DIRECTION ( 'NONE',  ( 3.491481338843133355E-15, -1.224646799147353207E-16, 1.000000000000000000 ) ) ;
#31 = PERSON_AND_ORGANIZATION_ROLE ( 'design_owner' ) ;
#32 = APPROVAL_ROLE ( '' ) ;
#33 = COORDINATED_UNIVERSAL_TIME_OFFSET ( 1, 0, .AHEAD. ) ;
#34 = CC_DESIGN_SECURITY_CLASSIFICATION ( #60, ( #36 ) ) ;
#35 = ORIENTED_EDGE ( 'NONE', *, *, #13, .T. ) ;
#36 = PRODUCT_DEFINITION_FORMATION_WITH_SPECIFIED_SOURCE ( 'ANY', '', #190, .NOT_KNOWN. ) ;
#37 = CALENDAR_DATE ( 2021, 8, 10 ) ;
#38 = SECURITY_CLASSIFICATION_LEVEL ( 'unclassified' ) ;
#39 = AXIS2_PLACEMENT_3D ( 'NONE', #194, #112, #148 ) ;
#40 = ORIENTED_EDGE ( 'NONE', *, *, #102, .T. ) ;
#41 = EDGE_CURVE ( 'NONE', #186, #186, #189, .T. ) ;
#42 = FACE_OUTER_BOUND ( 'NONE', #103, .T. ) ;
#43 = MANIFOLD_SOLID_BREP ( 'Corps-Déplacer/Copier1[2]', #61 ) ;
#44 = DIRECTION ( 'NONE',  ( 3.131593405507704487E-31, 1.000000000000000000, 8.814651808825250314E-17 ) ) ;
#45 = VERTEX_POINT ( 'NONE', #167 ) ;
#46 = CARTESIAN_POINT ( 'NONE',  ( 1.239721729873770266E-15, 0.6149999999999992140, 0.3550704155516235527 ) ) ;
#47 = AXIS2_PLACEMENT_3D ( 'NONE', #153, #99, #79 ) ;
#48 = APPLICATION_CONTEXT ( 'configuration controlled 3d designs of mechanical parts and assemblies' ) ;
#49 = EDGE_LOOP ( 'NONE', ( #193 ) ) ;
#50 = APPROVAL_STATUS ( 'not_yet_approved' ) ;
#51 = EDGE_CURVE ( 'NONE', #64, #64, #71, .T. ) ;
#52 = LOCAL_TIME ( 7, 53, 54.00000000000000000, #33 ) ;
#53 = COORDINATED_UNIVERSAL_TIME_OFFSET ( 1, 0, .AHEAD. ) ;
#54 = DIRECTION ( 'NONE',  ( -3.131593405507704487E-31, -1.000000000000000000, -8.814651808825250314E-17 ) ) ;
#55 = FACE_OUTER_BOUND ( 'NONE', #173, .T. ) ;
#56 = DIRECTION ( 'NONE',  ( 0.0000000000000000000, 1.000000000000000000, 0.0000000000000000000 ) ) ;
#57 = ADVANCED_FACE ( 'NONE', ( #180, #127 ), #113, .T. ) ;
#58 = FACE_BOUND ( 'NONE', #25, .T. ) ;
#59 = CARTESIAN_POINT ( 'NONE',  ( 1.239721729873770068E-15, -4.348358478772163020E-17, 0.3550704155516234972 ) ) ;
#60 = SECURITY_CLASSIFICATION ( '', '', #38 ) ;
#61 = CLOSED_SHELL ( 'NONE', ( #135, #57, #140 ) ) ;
#62 = CARTESIAN_POINT ( 'NONE',  ( 3.491481338843133355E-14, 0.6150000000000001021, 10.00000000000000000 ) ) ;
#63 = CALENDAR_DATE ( 2021, 8, 10 ) ;
#64 = VERTEX_POINT ( 'NONE', #221 ) ;
#65 = CC_DESIGN_PERSON_AND_ORGANIZATION_ASSIGNMENT ( #116, #31, ( #190 ) ) ;
#66 = AXIS2_PLACEMENT_3D ( 'NONE', #14, #30, #184 ) ;
#67 = APPLICATION_PROTOCOL_DEFINITION ( 'international standard', 'config_control_design', 1994, #48 ) ;
#68 = APPLICATION_CONTEXT ( 'configuration controlled 3d designs of mechanical parts and assemblies' ) ;
#69 = CONICAL_SURFACE ( 'NONE', #121, 0.5500000000000000444, 0.7853981633974512766 ) ;
#70 = ORIENTED_EDGE ( 'NONE', *, *, #41, .T. ) ;
#71 = CIRCLE ( 'NONE', #88, 0.7500000000000000000 ) ;
#72 = CARTESIAN_POINT ( 'NONE',  ( 1.040461438975253740E-13, -3.649447461459112464E-15, 29.80000000000000071 ) ) ;
#73 = DATE_AND_TIME ( #24, #52 ) ;
#74 = EDGE_LOOP ( 'NONE', ( #40 ) ) ;
#75 = EDGE_LOOP ( 'NONE', ( #27 ) ) ;
#76 = DIRECTION ( 'NONE',  ( -3.491481338843133355E-15, 1.224646799147353207E-16, -1.000000000000000000 ) ) ;
#77 =( GEOMETRIC_REPRESENTATION_CONTEXT ( 3 ) GLOBAL_UNCERTAINTY_ASSIGNED_CONTEXT ( ( #4 ) ) GLOBAL_UNIT_ASSIGNED_CONTEXT ( ( #206, #136, #154 ) ) REPRESENTATION_CONTEXT ( 'NONE', 'WORKASPACE' ) );
#78 = PLANE ( 'NONE',  #39 ) ;
#79 = DIRECTION ( 'NONE',  ( 4.275831445896959482E-31, 1.000000000000000000, 1.224646799147353207E-16 ) ) ;
#80 = FACE_OUTER_BOUND ( 'NONE', #111, .T. ) ;
#81 = DIRECTION ( 'NONE',  ( -4.275831445896958607E-31, -1.000000000000000000, -1.224646799147353207E-16 ) ) ;
#82 = SHAPE_DEFINITION_REPRESENTATION ( #122, #168 ) ;
#83 = CIRCLE ( 'NONE', #19, 0.6149999999999992140 ) ;
#84 = LOCAL_TIME ( 7, 53, 54.00000000000000000, #15 ) ;
#85 = DIRECTION ( 'NONE',  ( -3.491481338843133355E-15, 1.224646799147353207E-16, -1.000000000000000000 ) ) ;
#86 = DATE_TIME_ROLE ( 'creation_date' ) ;
#87 = ORIENTED_EDGE ( 'NONE', *, *, #102, .F. ) ;
#88 = AXIS2_PLACEMENT_3D ( 'NONE', #72, #157, #56 ) ;
#89 = CC_DESIGN_DATE_AND_TIME_ASSIGNMENT ( #212, #209, ( #60 ) ) ;
#90 = EDGE_LOOP ( 'NONE', ( #35 ) ) ;
#91 = DIRECTION ( 'NONE',  ( -3.491481338843133355E-15, 1.224646799147353207E-16, -1.000000000000000000 ) ) ;
#92 = ORIENTED_EDGE ( 'NONE', *, *, #97, .T. ) ;
#93 = APPROVAL ( #50, 'UNSPECIFIED' ) ;
#94 = FACE_OUTER_BOUND ( 'NONE', #178, .T. ) ;
#95 = APPLICATION_PROTOCOL_DEFINITION ( 'international standard', 'config_control_design', 1994, #68 ) ;
#96 = DIRECTION ( 'NONE',  ( 1.000000000000000000, 0.0000000000000000000, 0.0000000000000000000 ) ) ;
#97 = EDGE_CURVE ( 'NONE', #134, #134, #220, .T. ) ;
#98 = APPROVAL_DATE_TIME ( #133, #2 ) ;
#99 = DIRECTION ( 'NONE',  ( -3.491481338843133355E-15, 1.224646799147353207E-16, -1.000000000000000000 ) ) ;
#100 = CALENDAR_DATE ( 2021, 8, 10 ) ;
#101 = AXIS2_PLACEMENT_3D ( 'NONE', #223, #169, #149 ) ;
#102 = EDGE_CURVE ( 'NONE', #17, #17, #179, .T. ) ;
#103 = EDGE_LOOP ( 'NONE', ( #145 ) ) ;
#104 = CC_DESIGN_APPROVAL ( #93, ( #60 ) ) ;
#105 = PERSON_AND_ORGANIZATION ( #138, #205 ) ;
#106 = CALENDAR_DATE ( 2021, 8, 10 ) ;
#107 = FACE_OUTER_BOUND ( 'NONE', #123, .T. ) ;
#108 = CC_DESIGN_PERSON_AND_ORGANIZATION_ASSIGNMENT ( #16, #187, ( #162 ) ) ;
#109 = PERSON_AND_ORGANIZATION ( #138, #205 ) ;
#110 = DIRECTION ( 'NONE',  ( 0.0000000000000000000, 1.000000000000000000, 0.0000000000000000000 ) ) ;
#111 = EDGE_LOOP ( 'NONE', ( #144 ) ) ;
#112 = DIRECTION ( 'NONE',  ( -3.491481338843133355E-15, 1.224646799147353207E-16, -1.000000000000000000 ) ) ;
#113 = CYLINDRICAL_SURFACE ( 'NONE', #119, 0.6150000000000003242 ) ;
#114 = CONICAL_SURFACE ( 'NONE', #210, 0.7499999999999976685, 0.5235987755982918213 ) ;
#115 = PLANE ( 'NONE',  #156 ) ;
#116 = PERSON_AND_ORGANIZATION ( #138, #205 ) ;
#117 = APPROVAL_PERSON_ORGANIZATION ( #109, #93, #176 ) ;
#118 = DESIGN_CONTEXT ( 'detailed design', #68, 'design' ) ;
#119 = AXIS2_PLACEMENT_3D ( 'NONE', #159, #23, #216 ) ;
#120 = ADVANCED_FACE ( 'NONE', ( #55, #58 ), #69, .T. ) ;
#121 = AXIS2_PLACEMENT_3D ( 'NONE', #126, #181, #128 ) ;
#122 = PRODUCT_DEFINITION_SHAPE ( 'NONE', 'NONE',  #162 ) ;
#123 = EDGE_LOOP ( 'NONE', ( #87 ) ) ;
#124 = CC_DESIGN_PERSON_AND_ORGANIZATION_ASSIGNMENT ( #207, #18, ( #36 ) ) ;
#125 = PERSON_AND_ORGANIZATION ( #138, #205 ) ;
#126 = CARTESIAN_POINT ( 'NONE',  ( 1.047444401652940007E-13, -3.673940397442059178E-15, 30.00000000000000000 ) ) ;
#127 = FACE_OUTER_BOUND ( 'NONE', #74, .T. ) ;
#128 = DIRECTION ( 'NONE',  ( 0.0000000000000000000, 1.000000000000000000, 0.0000000000000000000 ) ) ;
#129 = FACE_OUTER_BOUND ( 'NONE', #90, .T. ) ;
#130 = CC_DESIGN_APPROVAL ( #171, ( #36 ) ) ;
#131 = CARTESIAN_POINT ( 'NONE',  ( 3.491481338843133355E-14, 0.6150000000000001021, 10.00000000000000000 ) ) ;
#132 = ADVANCED_FACE ( 'NONE', ( #42 ), #78, .F. ) ;
#133 = DATE_AND_TIME ( #63, #84 ) ;
#134 = VERTEX_POINT ( 'NONE', #1 ) ;
#135 = ADVANCED_FACE ( 'NONE', ( #129 ), #172, .T. ) ;
#136 =( NAMED_UNIT ( * ) PLANE_ANGLE_UNIT ( ) SI_UNIT ( $, .RADIAN. ) );
#137 = APPROVAL_PERSON_ORGANIZATION ( #125, #171, #158 ) ;
#138 = PERSON ( 'UNSPECIFIED', 'UNSPECIFIED', 'UNSPECIFIED', ('UNSPECIFIED'), ('UNSPECIFIED'), ('UNSPECIFIED') ) ;
#139 = COORDINATED_UNIVERSAL_TIME_OFFSET ( 1, 0, .AHEAD. ) ;
#140 = ADVANCED_FACE ( 'NONE', ( #107 ), #175, .T. ) ;
#141 = EDGE_LOOP ( 'NONE', ( #92 ) ) ;
#142 = PERSON_AND_ORGANIZATION_ROLE ( 'creator' ) ;
#143 = PERSON_AND_ORGANIZATION_ROLE ( 'classification_officer' ) ;
#144 = ORIENTED_EDGE ( 'NONE', *, *, #97, .F. ) ;
#145 = ORIENTED_EDGE ( 'NONE', *, *, #222, .F. ) ;
#146 = CLOSED_SHELL ( 'NONE', ( #174, #5, #203, #120, #132 ) ) ;
#147 = CC_DESIGN_PERSON_AND_ORGANIZATION_ASSIGNMENT ( #3, #143, ( #60 ) ) ;
#148 = DIRECTION ( 'NONE',  ( 4.275831445896958607E-31, 1.000000000000000000, 1.224646799147353207E-16 ) ) ;
#149 = DIRECTION ( 'NONE',  ( 0.0000000000000000000, 1.000000000000000000, 0.0000000000000000000 ) ) ;
#150 = LOCAL_TIME ( 7, 53, 54.00000000000000000, #22 ) ;
#151 = AXIS2_PLACEMENT_3D ( 'NONE', #26, #91, #110 ) ;
#152 = CARTESIAN_POINT ( 'NONE',  ( 3.491481338843133355E-14, 4.611761331685203386E-33, 10.00000000000000000 ) ) ;
#153 = CARTESIAN_POINT ( 'NONE',  ( 0.0000000000000000000, 0.0000000000000000000, 0.0000000000000000000 ) ) ;
#154 =( NAMED_UNIT ( * ) SI_UNIT ( $, .STERADIAN. ) SOLID_ANGLE_UNIT ( ) );
#155 = DATE_AND_TIME ( #106, #199 ) ;
#156 = AXIS2_PLACEMENT_3D ( 'NONE', #152, #219, #81 ) ;
#157 = DIRECTION ( 'NONE',  ( -3.491481338843133355E-15, 1.224646799147353207E-16, -1.000000000000000000 ) ) ;
#158 = APPROVAL_ROLE ( '' ) ;
#159 = CARTESIAN_POINT ( 'NONE',  ( 0.0000000000000000000, 0.0000000000000000000, 0.0000000000000000000 ) ) ;
#160 = ORIENTED_EDGE ( 'NONE', *, *, #41, .F. ) ;
#161 = CARTESIAN_POINT ( 'NONE',  ( 3.491481338843133355E-14, -1.224646799147353256E-15, 10.00000000000000000 ) ) ;
#162 = PRODUCT_DEFINITION ( 'UNKNOWN', '', #36, #118 ) ;
#163 = ORIENTED_EDGE ( 'NONE', *, *, #51, .F. ) ;
#164 = PERSON_AND_ORGANIZATION ( #138, #205 ) ;
#165 = APPROVAL_STATUS ( 'not_yet_approved' ) ;
#166 = AXIS2_PLACEMENT_3D ( 'NONE', #161, #85, #217 ) ;
#167 = CARTESIAN_POINT ( 'NONE',  ( 1.047444401652940007E-13, 0.5499999999999963807, 30.00000000000000000 ) ) ;
#168 = ADVANCED_BREP_SHAPE_REPRESENTATION ( '46797', ( #191, #43, #195 ), #77 ) ;
#169 = DIRECTION ( 'NONE',  ( -3.491481338843133355E-15, 1.224646799147353207E-16, -1.000000000000000000 ) ) ;
#170 = APPROVAL_STATUS ( 'not_yet_approved' ) ;
#171 = APPROVAL ( #170, 'UNSPECIFIED' ) ;
#172 = CONICAL_SURFACE ( 'NONE', #215, 0.6149999999999992140, 1.047197551196592746 ) ;
#173 = EDGE_LOOP ( 'NONE', ( #163 ) ) ;
#174 = ADVANCED_FACE ( 'NONE', ( #94 ), #115, .F. ) ;
#175 = PLANE ( 'NONE',  #66 ) ;
#176 = APPROVAL_ROLE ( '' ) ;
#177 = LOCAL_TIME ( 7, 53, 54.00000000000000000, #139 ) ;
#178 = EDGE_LOOP ( 'NONE', ( #70 ) ) ;
#179 = CIRCLE ( 'NONE', #188, 0.6150000000000013234 ) ;
#180 = FACE_OUTER_BOUND ( 'NONE', #49, .T. ) ;
#181 = DIRECTION ( 'NONE',  ( -3.491481338843133355E-15, 1.224646799147353207E-16, -1.000000000000000000 ) ) ;
#182 = VERTEX_POINT ( 'NONE', #46 ) ;
#183 = DIRECTION ( 'NONE',  ( 0.0000000000000000000, 0.0000000000000000000, 1.000000000000000000 ) ) ;
#184 = DIRECTION ( 'NONE',  ( -4.275831445896958607E-31, -1.000000000000000000, -1.224646799147353207E-16 ) ) ;
#185 = CC_DESIGN_DATE_AND_TIME_ASSIGNMENT ( #6, #86, ( #162 ) ) ;
#186 = VERTEX_POINT ( 'NONE', #62 ) ;
#187 = PERSON_AND_ORGANIZATION_ROLE ( 'creator' ) ;
#188 = AXIS2_PLACEMENT_3D ( 'NONE', #196, #76, #21 ) ;
#189 = CIRCLE ( 'NONE', #166, 0.6150000000000013234 ) ;
#190 = PRODUCT ( '46797', '46797', '', ( #200 ) ) ;
#191 = MANIFOLD_SOLID_BREP ( 'Corps-Déplacer/Copier1[1]', #146 ) ;
#192 = APPROVAL_DATE_TIME ( #73, #93 ) ;
#193 = ORIENTED_EDGE ( 'NONE', *, *, #13, .F. ) ;
#194 = CARTESIAN_POINT ( 'NONE',  ( 1.047444401652940007E-13, 4.124339402320052999E-33, 30.00000000000000000 ) ) ;
#195 = AXIS2_PLACEMENT_3D ( 'NONE', #201, #183, #96 ) ;
#196 = CARTESIAN_POINT ( 'NONE',  ( 3.491481338843133355E-14, -1.224646799147353256E-15, 10.00000000000000000 ) ) ;
#197 = CARTESIAN_POINT ( 'NONE',  ( 3.573121550322624079E-14, -1.253282330592925506E-15, 10.23382685902179645 ) ) ;
#198 = DIRECTION ( 'NONE',  ( 3.491481338843133355E-15, -1.224646799147353207E-16, 1.000000000000000000 ) ) ;
#199 = LOCAL_TIME ( 7, 53, 54.00000000000000000, #53 ) ;
#200 = MECHANICAL_CONTEXT ( 'NONE', #48, 'mechanical' ) ;
#201 = CARTESIAN_POINT ( 'NONE',  ( 0.0000000000000000000, 0.0000000000000000000, 0.0000000000000000000 ) ) ;
#202 = CYLINDRICAL_SURFACE ( 'NONE', #47, 0.7499999999999987788 ) ;
#203 = ADVANCED_FACE ( 'NONE', ( #80, #204 ), #202, .T. ) ;
#204 = FACE_OUTER_BOUND ( 'NONE', #75, .T. ) ;
#205 = ORGANIZATION ( 'UNSPECIFIED', 'UNSPECIFIED', '' ) ;
#206 =( LENGTH_UNIT ( ) NAMED_UNIT ( * ) SI_UNIT ( .MILLI., .METRE. ) );
#207 = PERSON_AND_ORGANIZATION ( #138, #205 ) ;
#208 = PRODUCT_RELATED_PRODUCT_CATEGORY ( 'detail', '', ( #190 ) ) ;
#209 = DATE_TIME_ROLE ( 'classification_date' ) ;
#210 = AXIS2_PLACEMENT_3D ( 'NONE', #197, #198, #10 ) ;
#211 = DIRECTION ( 'NONE',  ( 3.491481338843133355E-15, -1.224646799147353207E-16, 1.000000000000000000 ) ) ;
#212 = DATE_AND_TIME ( #100, #177 ) ;
#213 = EDGE_LOOP ( 'NONE', ( #160 ) ) ;
#214 = FACE_OUTER_BOUND ( 'NONE', #141, .T. ) ;
#215 = AXIS2_PLACEMENT_3D ( 'NONE', #7, #211, #54 ) ;
#216 = DIRECTION ( 'NONE',  ( 4.275831445896958607E-31, 1.000000000000000000, 1.224646799147353207E-16 ) ) ;
#217 = DIRECTION ( 'NONE',  ( 0.0000000000000000000, 1.000000000000000000, 0.0000000000000000000 ) ) ;
#218 = CC_DESIGN_APPROVAL ( #2, ( #162 ) ) ;
#219 = DIRECTION ( 'NONE',  ( 3.491481338843133355E-15, -1.224646799147353207E-16, 1.000000000000000000 ) ) ;
#220 = CIRCLE ( 'NONE', #151, 0.7499999999999976685 ) ;
#221 = CARTESIAN_POINT ( 'NONE',  ( 1.040461438975253740E-13, 0.7499999999999963363, 29.80000000000000071 ) ) ;
#222 = EDGE_CURVE ( 'NONE', #45, #45, #29, .T. ) ;
#223 = CARTESIAN_POINT ( 'NONE',  ( 1.047444401652940007E-13, -3.673940397442059178E-15, 30.00000000000000000 ) ) ;
ENDSEC;
END-ISO-10303-21;
