ISO-10303-21;
HEADER;
FILE_DESCRIPTION (( 'STEP AP203' ),
    '1' );
FILE_NAME ('467.step',
    '2021-10-07T13:48:16',
    ( '' ),
    ( '' ),
    'SwSTEP 2.0',
    'SolidWorks 2019',
    '' );
FILE_SCHEMA (( 'CONFIG_CONTROL_DESIGN' ));
ENDSEC;

DATA;
#1 = SECURITY_CLASSIFICATION_LEVEL ( 'unclassified' ) ;
#2 = CIRCLE ( 'NONE', #50, 1.049999999999998712 ) ;
#3 = APPLICATION_PROTOCOL_DEFINITION ( 'international standard', 'config_control_design', 1994, #195 ) ;
#4 = ADVANCED_FACE ( 'NONE', ( #58, #109 ), #10, .T. ) ;
#5 = CC_DESIGN_DATE_AND_TIME_ASSIGNMENT ( #52, #157, ( #147 ) ) ;
#6 = CLOSED_SHELL ( 'NONE', ( #189, #4, #92, #117, #132 ) ) ;
#7 = AXIS2_PLACEMENT_3D ( 'NONE', #71, #136, #156 ) ;
#8 = EDGE_LOOP ( 'NONE', ( #90 ) ) ;
#9 = DIRECTION ( 'NONE',  ( 0.0000000000000000000, -1.000000000000000000, 0.0000000000000000000 ) ) ;
#10 = CONICAL_SURFACE ( 'NONE', #35, 1.249999999999996447, 0.5235987755982951519 ) ;
#11 = DIRECTION ( 'NONE',  ( 0.0000000000000000000, 1.000000000000000000, 0.0000000000000000000 ) ) ;
#12 = VERTEX_POINT ( 'NONE', #48 ) ;
#13 = AXIS2_PLACEMENT_3D ( 'NONE', #188, #51, #166 ) ;
#14 = UNCERTAINTY_MEASURE_WITH_UNIT (LENGTH_MEASURE( 1.000000000000000082E-05 ), #206, 'distance_accuracy_value', 'NONE');
#15 = CARTESIAN_POINT ( 'NONE',  ( 2.202788320509505095E-15, 1.049999999999998712, 0.6309036499789446584 ) ) ;
#16 = DIRECTION ( 'NONE',  ( 0.0000000000000000000, 1.000000000000000000, 0.0000000000000000000 ) ) ;
#17 = DIRECTION ( 'NONE',  ( 0.0000000000000000000, 1.000000000000000000, 0.0000000000000000000 ) ) ;
#18 = AXIS2_PLACEMENT_3D ( 'NONE', #128, #98, #168 ) ;
#19 = COORDINATED_UNIVERSAL_TIME_OFFSET ( 1, 0, .AHEAD. ) ;
#20 = COORDINATED_UNIVERSAL_TIME_OFFSET ( 1, 0, .AHEAD. ) ;
#21 = LOCAL_TIME ( 15, 48, 16.00000000000000000, #38 ) ;
#22 = CALENDAR_DATE ( 2021, 7, 10 ) ;
#23 = CALENDAR_DATE ( 2021, 7, 10 ) ;
#24 = ORIENTED_EDGE ( 'NONE', *, *, #63, .F. ) ;
#25 = AXIS2_PLACEMENT_3D ( 'NONE', #34, #184, #203 ) ;
#26 = EDGE_CURVE ( 'NONE', #217, #217, #105, .T. ) ;
#27 = EDGE_LOOP ( 'NONE', ( #42 ) ) ;
#28 = ORIENTED_EDGE ( 'NONE', *, *, #26, .F. ) ;
#29 = DIRECTION ( 'NONE',  ( -3.491481338843133355E-15, 1.224646799147353207E-16, -1.000000000000000000 ) ) ;
#30 = FACE_OUTER_BOUND ( 'NONE', #199, .T. ) ;
#31 = FACE_OUTER_BOUND ( 'NONE', #27, .T. ) ;
#32 = LOCAL_TIME ( 15, 48, 16.00000000000000000, #141 ) ;
#33 = DIRECTION ( 'NONE',  ( -3.668437989309025156E-31, -1.000000000000000000, -1.032573497605243580E-16 ) ) ;
#34 = CARTESIAN_POINT ( 'NONE',  ( 4.310726068062857044E-14, -1.511999168525819800E-15, 12.34641016151377357 ) ) ;
#35 = AXIS2_PLACEMENT_3D ( 'NONE', #161, #60, #9 ) ;
#36 = SECURITY_CLASSIFICATION ( '', '', #1 ) ;
#37 =( GEOMETRIC_REPRESENTATION_CONTEXT ( 3 ) GLOBAL_UNCERTAINTY_ASSIGNED_CONTEXT ( ( #14 ) ) GLOBAL_UNIT_ASSIGNED_CONTEXT ( ( #206, #104, #56 ) ) REPRESENTATION_CONTEXT ( 'NONE', 'WORKASPACE' ) );
#38 = COORDINATED_UNIVERSAL_TIME_OFFSET ( 1, 0, .AHEAD. ) ;
#39 = MECHANICAL_CONTEXT ( 'NONE', #195, 'mechanical' ) ;
#40 = PERSON_AND_ORGANIZATION_ROLE ( 'design_supplier' ) ;
#41 = AXIS2_PLACEMENT_3D ( 'NONE', #49, #29, #81 ) ;
#42 = ORIENTED_EDGE ( 'NONE', *, *, #73, .F. ) ;
#43 = EDGE_LOOP ( 'NONE', ( #61 ) ) ;
#44 = ORIENTED_EDGE ( 'NONE', *, *, #63, .T. ) ;
#45 = AXIS2_PLACEMENT_3D ( 'NONE', #111, #205, #11 ) ;
#46 = CARTESIAN_POINT ( 'NONE',  ( 0.0000000000000000000, 0.0000000000000000000, 0.0000000000000000000 ) ) ;
#47 = DIRECTION ( 'NONE',  ( -3.491481338843133355E-15, 1.224646799147353207E-16, -1.000000000000000000 ) ) ;
#48 = CARTESIAN_POINT ( 'NONE',  ( 1.501336975702547217E-13, 0.9499999999999955147, 43.00000000000000000 ) ) ;
#49 = CARTESIAN_POINT ( 'NONE',  ( 0.0000000000000000000, 0.0000000000000000000, 0.0000000000000000000 ) ) ;
#50 = AXIS2_PLACEMENT_3D ( 'NONE', #131, #47, #68 ) ;
#51 = DIRECTION ( 'NONE',  ( 3.491481338843133355E-15, -1.224646799147353207E-16, 1.000000000000000000 ) ) ;
#52 = DATE_AND_TIME ( #72, #32 ) ;
#53 = PERSON_AND_ORGANIZATION ( #212, #126 ) ;
#54 = AXIS2_PLACEMENT_3D ( 'NONE', #153, #219, #112 ) ;
#55 = CC_DESIGN_PERSON_AND_ORGANIZATION_ASSIGNMENT ( #172, #40, ( #75 ) ) ;
#56 =( NAMED_UNIT ( * ) SI_UNIT ( $, .STERADIAN. ) SOLID_ANGLE_UNIT ( ) );
#57 = COORDINATED_UNIVERSAL_TIME_OFFSET ( 1, 0, .AHEAD. ) ;
#58 = FACE_BOUND ( 'NONE', #74, .T. ) ;
#59 = AXIS2_PLACEMENT_3D ( 'NONE', #165, #114, #17 ) ;
#60 = DIRECTION ( 'NONE',  ( 3.491481338843133355E-15, -1.224646799147353207E-16, 1.000000000000000000 ) ) ;
#61 = ORIENTED_EDGE ( 'NONE', *, *, #73, .T. ) ;
#62 = VERTEX_POINT ( 'NONE', #127 ) ;
#63 = EDGE_CURVE ( 'NONE', #62, #62, #119, .T. ) ;
#64 = FACE_OUTER_BOUND ( 'NONE', #146, .T. ) ;
#65 = CYLINDRICAL_SURFACE ( 'NONE', #41, 1.249999999999998446 ) ;
#66 = DIRECTION ( 'NONE',  ( -4.275831445896958607E-31, -1.000000000000000000, -1.224646799147353207E-16 ) ) ;
#67 = CIRCLE ( 'NONE', #45, 1.250000000000000666 ) ;
#68 = DIRECTION ( 'NONE',  ( 3.668437989309025156E-31, 1.000000000000000000, 1.032573497605243580E-16 ) ) ;
#69 = PERSON_AND_ORGANIZATION ( #212, #126 ) ;
#70 = CC_DESIGN_PERSON_AND_ORGANIZATION_ASSIGNMENT ( #154, #103, ( #75 ) ) ;
#71 = CARTESIAN_POINT ( 'NONE',  ( 0.0000000000000000000, 0.0000000000000000000, 0.0000000000000000000 ) ) ;
#72 = CALENDAR_DATE ( 2021, 7, 10 ) ;
#73 = EDGE_CURVE ( 'NONE', #12, #12, #149, .T. ) ;
#74 = EDGE_LOOP ( 'NONE', ( #160 ) ) ;
#75 = PRODUCT_DEFINITION_FORMATION_WITH_SPECIFIED_SOURCE ( 'ANY', '', #130, .NOT_KNOWN. ) ;
#76 = ORIENTED_EDGE ( 'NONE', *, *, #182, .T. ) ;
#77 = EDGE_CURVE ( 'NONE', #150, #150, #175, .T. ) ;
#78 = FACE_OUTER_BOUND ( 'NONE', #177, .T. ) ;
#79 = CARTESIAN_POINT ( 'NONE',  ( 4.189777606611760026E-14, 1.049999999999998046, 12.00000000000000000 ) ) ;
#80 = DIRECTION ( 'NONE',  ( -3.491481338843133355E-15, 1.224646799147353207E-16, -1.000000000000000000 ) ) ;
#81 = DIRECTION ( 'NONE',  ( 4.275831445896959482E-31, 1.000000000000000000, 1.224646799147353207E-16 ) ) ;
#82 = FACE_OUTER_BOUND ( 'NONE', #8, .T. ) ;
#83 = APPROVAL_ROLE ( '' ) ;
#84 = LOCAL_TIME ( 15, 48, 16.00000000000000000, #57 ) ;
#85 = PERSON_AND_ORGANIZATION_ROLE ( 'creator' ) ;
#86 = DATE_AND_TIME ( #23, #170 ) ;
#87 = ORIENTED_EDGE ( 'NONE', *, *, #26, .T. ) ;
#88 = AXIS2_PLACEMENT_3D ( 'NONE', #125, #80, #16 ) ;
#89 = LOCAL_TIME ( 15, 48, 16.00000000000000000, #19 ) ;
#90 = ORIENTED_EDGE ( 'NONE', *, *, #162, .T. ) ;
#91 = EDGE_LOOP ( 'NONE', ( #44 ) ) ;
#92 = ADVANCED_FACE ( 'NONE', ( #64, #110 ), #65, .T. ) ;
#93 = DESIGN_CONTEXT ( 'detailed design', #145, 'design' ) ;
#94 = DIRECTION ( 'NONE',  ( -3.491481338843133355E-15, 1.224646799147353207E-16, -1.000000000000000000 ) ) ;
#95 = DIRECTION ( 'NONE',  ( 3.491481338843133355E-15, -1.224646799147353207E-16, 1.000000000000000000 ) ) ;
#96 = CARTESIAN_POINT ( 'NONE',  ( 4.189777606611760026E-14, 1.049999999999998046, 12.00000000000000000 ) ) ;
#97 = CC_DESIGN_DATE_AND_TIME_ASSIGNMENT ( #86, #193, ( #36 ) ) ;
#98 = DIRECTION ( 'NONE',  ( -3.491481338843133355E-15, 1.224646799147353207E-16, -1.000000000000000000 ) ) ;
#99 = CYLINDRICAL_SURFACE ( 'NONE', #209, 1.049999999999999156 ) ;
#100 = CLOSED_SHELL ( 'NONE', ( #101, #223, #140 ) ) ;
#101 = ADVANCED_FACE ( 'NONE', ( #82 ), #163, .T. ) ;
#102 = PERSON_AND_ORGANIZATION ( #212, #126 ) ;
#103 = PERSON_AND_ORGANIZATION_ROLE ( 'creator' ) ;
#104 =( NAMED_UNIT ( * ) PLANE_ANGLE_UNIT ( ) SI_UNIT ( $, .RADIAN. ) );
#105 = CIRCLE ( 'NONE', #88, 1.049999999999999600 ) ;
#106 = APPROVAL_PERSON_ORGANIZATION ( #133, #192, #118 ) ;
#107 = PERSON_AND_ORGANIZATION ( #212, #126 ) ;
#108 = APPROVAL ( #138, 'UNSPECIFIED' ) ;
#109 = FACE_OUTER_BOUND ( 'NONE', #91, .T. ) ;
#110 = FACE_OUTER_BOUND ( 'NONE', #179, .T. ) ;
#111 = CARTESIAN_POINT ( 'NONE',  ( 1.490862531686017501E-13, -5.229241832359196822E-15, 42.69999999999998863 ) ) ;
#112 = DIRECTION ( 'NONE',  ( 0.0000000000000000000, 1.000000000000000000, 0.0000000000000000000 ) ) ;
#113 = CC_DESIGN_APPROVAL ( #192, ( #75 ) ) ;
#114 = DIRECTION ( 'NONE',  ( -3.491481338843133355E-15, 1.224646799147353207E-16, -1.000000000000000000 ) ) ;
#115 = PRODUCT_RELATED_PRODUCT_CATEGORY ( 'detail', '', ( #130 ) ) ;
#116 = FACE_OUTER_BOUND ( 'NONE', #143, .T. ) ;
#117 = ADVANCED_FACE ( 'NONE', ( #30, #151 ), #181, .T. ) ;
#118 = APPROVAL_ROLE ( '' ) ;
#119 = CIRCLE ( 'NONE', #25, 1.249999999999996447 ) ;
#120 = APPROVAL_DATE_TIME ( #196, #192 ) ;
#121 = APPROVAL_DATE_TIME ( #174, #108 ) ;
#122 = APPROVAL_ROLE ( '' ) ;
#123 = PERSON_AND_ORGANIZATION_ROLE ( 'design_owner' ) ;
#124 = APPROVAL_PERSON_ORGANIZATION ( #207, #198, #83 ) ;
#125 = CARTESIAN_POINT ( 'NONE',  ( 4.189777606611760026E-14, -1.469576158976823947E-15, 12.00000000000000000 ) ) ;
#126 = ORGANIZATION ( 'UNSPECIFIED', 'UNSPECIFIED', '' ) ;
#127 = CARTESIAN_POINT ( 'NONE',  ( 4.310726068062857044E-14, 1.249999999999994893, 12.34641016151377357 ) ) ;
#128 = CARTESIAN_POINT ( 'NONE',  ( 1.501336975702547217E-13, -5.265981236333618470E-15, 43.00000000000000000 ) ) ;
#129 = CC_DESIGN_SECURITY_CLASSIFICATION ( #36, ( #75 ) ) ;
#130 = PRODUCT ( '467', '467', '', ( #39 ) ) ;
#131 = CARTESIAN_POINT ( 'NONE',  ( 2.202788320509504701E-15, -7.726341355170965376E-17, 0.6309036499789445473 ) ) ;
#132 = ADVANCED_FACE ( 'NONE', ( #31 ), #183, .F. ) ;
#133 = PERSON_AND_ORGANIZATION ( #212, #126 ) ;
#134 = MANIFOLD_SOLID_BREP ( 'Corps-Déplacer/Copier1[2]', #100 ) ;
#135 = APPROVAL_STATUS ( 'not_yet_approved' ) ;
#136 = DIRECTION ( 'NONE',  ( 0.0000000000000000000, 0.0000000000000000000, 1.000000000000000000 ) ) ;
#137 = CC_DESIGN_PERSON_AND_ORGANIZATION_ASSIGNMENT ( #107, #176, ( #36 ) ) ;
#138 = APPROVAL_STATUS ( 'not_yet_approved' ) ;
#139 = MANIFOLD_SOLID_BREP ( 'Corps-Déplacer/Copier1[1]', #6 ) ;
#140 = ADVANCED_FACE ( 'NONE', ( #201 ), #221, .T. ) ;
#141 = COORDINATED_UNIVERSAL_TIME_OFFSET ( 1, 0, .AHEAD. ) ;
#142 = CALENDAR_DATE ( 2021, 7, 10 ) ;
#143 = EDGE_LOOP ( 'NONE', ( #215 ) ) ;
#144 = CC_DESIGN_APPROVAL ( #108, ( #147 ) ) ;
#145 = APPLICATION_CONTEXT ( 'configuration controlled 3d designs of mechanical parts and assemblies' ) ;
#146 = EDGE_LOOP ( 'NONE', ( #24 ) ) ;
#147 = PRODUCT_DEFINITION ( 'UNKNOWN', '', #75, #93 ) ;
#148 = PLANE ( 'NONE',  #13 ) ;
#149 = CIRCLE ( 'NONE', #54, 0.9500000000000008438 ) ;
#150 = VERTEX_POINT ( 'NONE', #96 ) ;
#151 = FACE_BOUND ( 'NONE', #43, .T. ) ;
#152 = DIRECTION ( 'NONE',  ( -3.491481338843133355E-15, 1.224646799147353207E-16, -1.000000000000000000 ) ) ;
#153 = CARTESIAN_POINT ( 'NONE',  ( 1.501336975702547217E-13, -5.265981236333618470E-15, 43.00000000000000000 ) ) ;
#154 = PERSON_AND_ORGANIZATION ( #212, #126 ) ;
#155 = PRODUCT_DEFINITION_SHAPE ( 'NONE', 'NONE',  #147 ) ;
#156 = DIRECTION ( 'NONE',  ( 1.000000000000000000, 0.0000000000000000000, 0.0000000000000000000 ) ) ;
#157 = DATE_TIME_ROLE ( 'creation_date' ) ;
#158 = DATE_AND_TIME ( #142, #21 ) ;
#159 = AXIS2_PLACEMENT_3D ( 'NONE', #169, #187, #33 ) ;
#160 = ORIENTED_EDGE ( 'NONE', *, *, #77, .F. ) ;
#161 = CARTESIAN_POINT ( 'NONE',  ( 4.310726068062857044E-14, -1.511999168525819800E-15, 12.34641016151377357 ) ) ;
#162 = EDGE_CURVE ( 'NONE', #167, #167, #2, .T. ) ;
#163 = CONICAL_SURFACE ( 'NONE', #159, 1.049999999999998712, 1.029744258676649649 ) ;
#164 = CC_DESIGN_PERSON_AND_ORGANIZATION_ASSIGNMENT ( #53, #123, ( #130 ) ) ;
#165 = CARTESIAN_POINT ( 'NONE',  ( 4.189777606611760026E-14, -1.469576158976823947E-15, 12.00000000000000000 ) ) ;
#166 = DIRECTION ( 'NONE',  ( -4.275831445896958607E-31, -1.000000000000000000, -1.224646799147353207E-16 ) ) ;
#167 = VERTEX_POINT ( 'NONE', #15 ) ;
#168 = DIRECTION ( 'NONE',  ( 0.0000000000000000000, 1.000000000000000000, 0.0000000000000000000 ) ) ;
#169 = CARTESIAN_POINT ( 'NONE',  ( 2.202788320509504701E-15, -7.726341355170965376E-17, 0.6309036499789445473 ) ) ;
#170 = LOCAL_TIME ( 15, 48, 16.00000000000000000, #20 ) ;
#171 = CARTESIAN_POINT ( 'NONE',  ( 1.490862531686017501E-13, 1.249999999999995559, 42.69999999999998863 ) ) ;
#172 = PERSON_AND_ORGANIZATION ( #212, #126 ) ;
#173 = CC_DESIGN_PERSON_AND_ORGANIZATION_ASSIGNMENT ( #69, #85, ( #147 ) ) ;
#174 = DATE_AND_TIME ( #22, #89 ) ;
#175 = CIRCLE ( 'NONE', #59, 1.049999999999999600 ) ;
#176 = PERSON_AND_ORGANIZATION_ROLE ( 'classification_officer' ) ;
#177 = EDGE_LOOP ( 'NONE', ( #87 ) ) ;
#178 = ORIENTED_EDGE ( 'NONE', *, *, #182, .F. ) ;
#179 = EDGE_LOOP ( 'NONE', ( #76 ) ) ;
#180 = EDGE_LOOP ( 'NONE', ( #216 ) ) ;
#181 = CONICAL_SURFACE ( 'NONE', #18, 0.9500000000000008438, 0.7853981633974336241 ) ;
#182 = EDGE_CURVE ( 'NONE', #190, #190, #67, .T. ) ;
#183 = PLANE ( 'NONE',  #218 ) ;
#184 = DIRECTION ( 'NONE',  ( -3.491481338843133355E-15, 1.224646799147353207E-16, -1.000000000000000000 ) ) ;
#185 = CARTESIAN_POINT ( 'NONE',  ( 4.189777606611760026E-14, 7.873738858974726440E-33, 12.00000000000000000 ) ) ;
#186 = AXIS2_PLACEMENT_3D ( 'NONE', #185, #95, #66 ) ;
#187 = DIRECTION ( 'NONE',  ( 3.491481338843133355E-15, -1.224646799147353207E-16, 1.000000000000000000 ) ) ;
#188 = CARTESIAN_POINT ( 'NONE',  ( 4.189777606611760026E-14, 7.873738858974726440E-33, 12.00000000000000000 ) ) ;
#189 = ADVANCED_FACE ( 'NONE', ( #200 ), #148, .F. ) ;
#190 = VERTEX_POINT ( 'NONE', #171 ) ;
#191 = APPROVAL_PERSON_ORGANIZATION ( #102, #108, #122 ) ;
#192 = APPROVAL ( #211, 'UNSPECIFIED' ) ;
#193 = DATE_TIME_ROLE ( 'classification_date' ) ;
#194 = CALENDAR_DATE ( 2021, 7, 10 ) ;
#195 = APPLICATION_CONTEXT ( 'configuration controlled 3d designs of mechanical parts and assemblies' ) ;
#196 = DATE_AND_TIME ( #194, #84 ) ;
#197 = SHAPE_DEFINITION_REPRESENTATION ( #155, #208 ) ;
#198 = APPROVAL ( #135, 'UNSPECIFIED' ) ;
#199 = EDGE_LOOP ( 'NONE', ( #178 ) ) ;
#200 = FACE_OUTER_BOUND ( 'NONE', #180, .T. ) ;
#201 = FACE_OUTER_BOUND ( 'NONE', #214, .T. ) ;
#202 = DIRECTION ( 'NONE',  ( 4.275831445896958607E-31, 1.000000000000000000, 1.224646799147353207E-16 ) ) ;
#203 = DIRECTION ( 'NONE',  ( 0.0000000000000000000, 1.000000000000000000, 0.0000000000000000000 ) ) ;
#204 = CC_DESIGN_APPROVAL ( #198, ( #36 ) ) ;
#205 = DIRECTION ( 'NONE',  ( -3.491481338843133355E-15, 1.224646799147353207E-16, -1.000000000000000000 ) ) ;
#206 =( LENGTH_UNIT ( ) NAMED_UNIT ( * ) SI_UNIT ( .MILLI., .METRE. ) );
#207 = PERSON_AND_ORGANIZATION ( #212, #126 ) ;
#208 = ADVANCED_BREP_SHAPE_REPRESENTATION ( '467', ( #139, #134, #7 ), #37 ) ;
#209 = AXIS2_PLACEMENT_3D ( 'NONE', #46, #94, #202 ) ;
#210 = APPLICATION_PROTOCOL_DEFINITION ( 'international standard', 'config_control_design', 1994, #145 ) ;
#211 = APPROVAL_STATUS ( 'not_yet_approved' ) ;
#212 = PERSON ( 'UNSPECIFIED', 'UNSPECIFIED', 'UNSPECIFIED', ('UNSPECIFIED'), ('UNSPECIFIED'), ('UNSPECIFIED') ) ;
#213 = APPROVAL_DATE_TIME ( #158, #198 ) ;
#214 = EDGE_LOOP ( 'NONE', ( #28 ) ) ;
#215 = ORIENTED_EDGE ( 'NONE', *, *, #162, .F. ) ;
#216 = ORIENTED_EDGE ( 'NONE', *, *, #77, .T. ) ;
#217 = VERTEX_POINT ( 'NONE', #79 ) ;
#218 = AXIS2_PLACEMENT_3D ( 'NONE', #222, #152, #220 ) ;
#219 = DIRECTION ( 'NONE',  ( -3.491481338843133355E-15, 1.224646799147353207E-16, -1.000000000000000000 ) ) ;
#220 = DIRECTION ( 'NONE',  ( 4.275831445896958607E-31, 1.000000000000000000, 1.224646799147353207E-16 ) ) ;
#221 = PLANE ( 'NONE',  #186 ) ;
#222 = CARTESIAN_POINT ( 'NONE',  ( 1.501336975702547217E-13, 7.123858967643751109E-33, 43.00000000000000000 ) ) ;
#223 = ADVANCED_FACE ( 'NONE', ( #116, #78 ), #99, .T. ) ;
ENDSEC;
END-ISO-10303-21;
