ISO-10303-21;
HEADER;
FILE_DESCRIPTION (( 'STEP AP203' ),
    '1' );
FILE_NAME ('466.step',
    '2021-10-07T13:48:16',
    ( '' ),
    ( '' ),
    'SwSTEP 2.0',
    'SolidWorks 2019',
    '' );
FILE_SCHEMA (( 'CONFIG_CONTROL_DESIGN' ));
ENDSEC;

DATA;
#1 = DIRECTION ( 'NONE',  ( -3.491481338843133355E-15, 1.224646799147353207E-16, -1.000000000000000000 ) ) ;
#2 = CARTESIAN_POINT ( 'NONE',  ( 0.0000000000000000000, 0.0000000000000000000, 0.0000000000000000000 ) ) ;
#3 = LOCAL_TIME ( 15, 48, 16.00000000000000000, #78 ) ;
#4 = DIRECTION ( 'NONE',  ( 0.0000000000000000000, 1.000000000000000000, 0.0000000000000000000 ) ) ;
#5 = CARTESIAN_POINT ( 'NONE',  ( 4.189777606611760026E-14, 7.498798913309223722E-33, 12.00000000000000000 ) ) ;
#6 = FACE_OUTER_BOUND ( 'NONE', #46, .T. ) ;
#7 = ADVANCED_FACE ( 'NONE', ( #83, #48 ), #203, .T. ) ;
#8 = PERSON ( 'UNSPECIFIED', 'UNSPECIFIED', 'UNSPECIFIED', ('UNSPECIFIED'), ('UNSPECIFIED'), ('UNSPECIFIED') ) ;
#9 = CIRCLE ( 'NONE', #172, 1.250000000000000666 ) ;
#10 = AXIS2_PLACEMENT_3D ( 'NONE', #53, #87, #19 ) ;
#11 = PERSON_AND_ORGANIZATION ( #8, #22 ) ;
#12 = PERSON_AND_ORGANIZATION_ROLE ( 'creator' ) ;
#13 = ADVANCED_FACE ( 'NONE', ( #139, #107 ), #74, .T. ) ;
#14 = CALENDAR_DATE ( 2021, 7, 10 ) ;
#15 = ORIENTED_EDGE ( 'NONE', *, *, #49, .T. ) ;
#16 = PRODUCT_RELATED_PRODUCT_CATEGORY ( 'detail', '', ( #173 ) ) ;
#17 = EDGE_LOOP ( 'NONE', ( #174 ) ) ;
#18 = CLOSED_SHELL ( 'NONE', ( #100, #161, #198 ) ) ;
#19 = DIRECTION ( 'NONE',  ( 0.0000000000000000000, 1.000000000000000000, 0.0000000000000000000 ) ) ;
#20 = CARTESIAN_POINT ( 'NONE',  ( 1.501336975702547217E-13, 7.123858967643751109E-33, 43.00000000000000000 ) ) ;
#21 = CARTESIAN_POINT ( 'NONE',  ( 1.490862531686017501E-13, -5.229241832359196822E-15, 42.69999999999998863 ) ) ;
#22 = ORGANIZATION ( 'UNSPECIFIED', 'UNSPECIFIED', '' ) ;
#23 = DIRECTION ( 'NONE',  ( -3.491481338843133355E-15, 1.224646799147353207E-16, -1.000000000000000000 ) ) ;
#24 = FACE_BOUND ( 'NONE', #202, .T. ) ;
#25 = VERTEX_POINT ( 'NONE', #147 ) ;
#26 = CIRCLE ( 'NONE', #10, 1.249999999999996891 ) ;
#27 = DIRECTION ( 'NONE',  ( 0.0000000000000000000, 0.0000000000000000000, 1.000000000000000000 ) ) ;
#28 = DATE_AND_TIME ( #14, #201 ) ;
#29 = PERSON_AND_ORGANIZATION ( #8, #22 ) ;
#30 = LOCAL_TIME ( 15, 48, 16.00000000000000000, #115 ) ;
#31 = APPROVAL_PERSON_ORGANIZATION ( #150, #223, #187 ) ;
#32 = SHAPE_DEFINITION_REPRESENTATION ( #135, #151 ) ;
#33 = CONICAL_SURFACE ( 'NONE', #142, 0.9500000000000008438, 0.7853981633974336241 ) ;
#34 = FACE_OUTER_BOUND ( 'NONE', #17, .T. ) ;
#35 = DIRECTION ( 'NONE',  ( 3.491481338843133355E-15, -1.224646799147353207E-16, 1.000000000000000000 ) ) ;
#36 = CARTESIAN_POINT ( 'NONE',  ( 4.189777606611760026E-14, 0.9999999999999931166, 12.00000000000000000 ) ) ;
#37 = DIRECTION ( 'NONE',  ( 1.000000000000000000, 0.0000000000000000000, 0.0000000000000000000 ) ) ;
#38 = APPROVAL_ROLE ( '' ) ;
#39 = CALENDAR_DATE ( 2021, 7, 10 ) ;
#40 = ADVANCED_FACE ( 'NONE', ( #108 ), #54, .F. ) ;
#41 = PERSON_AND_ORGANIZATION_ROLE ( 'classification_officer' ) ;
#42 = MECHANICAL_CONTEXT ( 'NONE', #190, 'mechanical' ) ;
#43 = EDGE_CURVE ( 'NONE', #160, #160, #113, .T. ) ;
#44 = AXIS2_PLACEMENT_3D ( 'NONE', #162, #177, #209 ) ;
#45 = COORDINATED_UNIVERSAL_TIME_OFFSET ( 1, 0, .AHEAD. ) ;
#46 = EDGE_LOOP ( 'NONE', ( #15 ) ) ;
#47 =( GEOMETRIC_REPRESENTATION_CONTEXT ( 3 ) GLOBAL_UNCERTAINTY_ASSIGNED_CONTEXT ( ( #105 ) ) GLOBAL_UNIT_ASSIGNED_CONTEXT ( ( #96, #168, #114 ) ) REPRESENTATION_CONTEXT ( 'NONE', 'WORKASPACE' ) );
#48 = FACE_OUTER_BOUND ( 'NONE', #188, .T. ) ;
#49 = EDGE_CURVE ( 'NONE', #210, #210, #131, .T. ) ;
#50 = EDGE_LOOP ( 'NONE', ( #170 ) ) ;
#51 = EDGE_LOOP ( 'NONE', ( #136 ) ) ;
#52 = CC_DESIGN_PERSON_AND_ORGANIZATION_ASSIGNMENT ( #215, #61, ( #64 ) ) ;
#53 = CARTESIAN_POINT ( 'NONE',  ( 4.340963183425635874E-14, -1.522604920913070439E-15, 12.43301270189222940 ) ) ;
#54 = PLANE ( 'NONE',  #69 ) ;
#55 = DIRECTION ( 'NONE',  ( -3.491481338843133355E-15, 1.224646799147353207E-16, -1.000000000000000000 ) ) ;
#56 = CARTESIAN_POINT ( 'NONE',  ( 2.097893638580469642E-15, 0.9999999999999935607, 0.6008606190275630476 ) ) ;
#57 = AXIS2_PLACEMENT_3D ( 'NONE', #181, #176, #89 ) ;
#58 = CARTESIAN_POINT ( 'NONE',  ( 0.0000000000000000000, 0.0000000000000000000, 0.0000000000000000000 ) ) ;
#59 = APPROVAL_DATE_TIME ( #134, #194 ) ;
#60 = PERSON_AND_ORGANIZATION ( #8, #22 ) ;
#61 = PERSON_AND_ORGANIZATION_ROLE ( 'design_supplier' ) ;
#62 = COORDINATED_UNIVERSAL_TIME_OFFSET ( 1, 0, .AHEAD. ) ;
#63 = APPROVAL_ROLE ( '' ) ;
#64 = PRODUCT_DEFINITION_FORMATION_WITH_SPECIFIED_SOURCE ( 'ANY', '', #173, .NOT_KNOWN. ) ;
#65 = DATE_AND_TIME ( #222, #104 ) ;
#66 = ORIENTED_EDGE ( 'NONE', *, *, #84, .T. ) ;
#67 = EDGE_CURVE ( 'NONE', #195, #195, #214, .T. ) ;
#68 = EDGE_LOOP ( 'NONE', ( #117 ) ) ;
#69 = AXIS2_PLACEMENT_3D ( 'NONE', #157, #35, #76 ) ;
#70 = DIRECTION ( 'NONE',  ( 0.0000000000000000000, -1.000000000000000000, 0.0000000000000000000 ) ) ;
#71 = ORIENTED_EDGE ( 'NONE', *, *, #43, .T. ) ;
#72 = DIRECTION ( 'NONE',  ( 4.275831445896957731E-31, 1.000000000000000000, 1.224646799147352961E-16 ) ) ;
#73 = DIRECTION ( 'NONE',  ( 4.275831445896958607E-31, 1.000000000000000000, 1.224646799147353207E-16 ) ) ;
#74 = CYLINDRICAL_SURFACE ( 'NONE', #88, 1.249999999999998890 ) ;
#75 = DIRECTION ( 'NONE',  ( -3.491481338843133355E-15, 1.224646799147353207E-16, -1.000000000000000000 ) ) ;
#76 = DIRECTION ( 'NONE',  ( -4.275831445896958607E-31, -1.000000000000000000, -1.224646799147353207E-16 ) ) ;
#77 = APPLICATION_CONTEXT ( 'configuration controlled 3d designs of mechanical parts and assemblies' ) ;
#78 = COORDINATED_UNIVERSAL_TIME_OFFSET ( 1, 0, .AHEAD. ) ;
#79 = PERSON_AND_ORGANIZATION ( #8, #22 ) ;
#80 = AXIS2_PLACEMENT_3D ( 'NONE', #20, #55, #73 ) ;
#81 = PERSON_AND_ORGANIZATION ( #8, #22 ) ;
#82 = CC_DESIGN_DATE_AND_TIME_ASSIGNMENT ( #97, #165, ( #166 ) ) ;
#83 = FACE_BOUND ( 'NONE', #99, .T. ) ;
#84 = EDGE_CURVE ( 'NONE', #92, #92, #26, .T. ) ;
#85 = DIRECTION ( 'NONE',  ( 3.491481338843133355E-15, -1.224646799147353207E-16, 1.000000000000000000 ) ) ;
#86 = CC_DESIGN_APPROVAL ( #194, ( #217 ) ) ;
#87 = DIRECTION ( 'NONE',  ( -3.491481338843133355E-15, 1.224646799147353207E-16, -1.000000000000000000 ) ) ;
#88 = AXIS2_PLACEMENT_3D ( 'NONE', #2, #23, #143 ) ;
#89 = DIRECTION ( 'NONE',  ( 0.0000000000000000000, 1.000000000000000000, 0.0000000000000000000 ) ) ;
#90 = EDGE_CURVE ( 'NONE', #25, #25, #175, .T. ) ;
#91 = DIRECTION ( 'NONE',  ( -4.275831445896958607E-31, -1.000000000000000000, -1.224646799147353207E-16 ) ) ;
#92 = VERTEX_POINT ( 'NONE', #196 ) ;
#93 = VERTEX_POINT ( 'NONE', #213 ) ;
#94 = ADVANCED_FACE ( 'NONE', ( #178 ), #159, .F. ) ;
#95 = CC_DESIGN_APPROVAL ( #153, ( #64 ) ) ;
#96 =( LENGTH_UNIT ( ) NAMED_UNIT ( * ) SI_UNIT ( .MILLI., .METRE. ) );
#97 = DATE_AND_TIME ( #133, #30 ) ;
#98 = AXIS2_PLACEMENT_3D ( 'NONE', #156, #1, #111 ) ;
#99 = EDGE_LOOP ( 'NONE', ( #220 ) ) ;
#100 = ADVANCED_FACE ( 'NONE', ( #6 ), #221, .T. ) ;
#101 = AXIS2_PLACEMENT_3D ( 'NONE', #5, #179, #91 ) ;
#102 = EDGE_LOOP ( 'NONE', ( #205 ) ) ;
#103 = CLOSED_SHELL ( 'NONE', ( #40, #7, #13, #109, #94 ) ) ;
#104 = LOCAL_TIME ( 15, 48, 16.00000000000000000, #45 ) ;
#105 = UNCERTAINTY_MEASURE_WITH_UNIT (LENGTH_MEASURE( 1.000000000000000082E-05 ), #96, 'distance_accuracy_value', 'NONE');
#106 = CARTESIAN_POINT ( 'NONE',  ( 4.189777606611760026E-14, -1.469576158976823947E-15, 12.00000000000000000 ) ) ;
#107 = FACE_OUTER_BOUND ( 'NONE', #50, .T. ) ;
#108 = FACE_OUTER_BOUND ( 'NONE', #51, .T. ) ;
#109 = ADVANCED_FACE ( 'NONE', ( #124, #24 ), #33, .T. ) ;
#110 = DIRECTION ( 'NONE',  ( -3.491481338843133355E-15, 1.224646799147353207E-16, -1.000000000000000000 ) ) ;
#111 = DIRECTION ( 'NONE',  ( 0.0000000000000000000, 1.000000000000000000, 0.0000000000000000000 ) ) ;
#112 = COORDINATED_UNIVERSAL_TIME_OFFSET ( 1, 0, .AHEAD. ) ;
#113 = CIRCLE ( 'NONE', #207, 0.9999999999999945599 ) ;
#114 =( NAMED_UNIT ( * ) SI_UNIT ( $, .STERADIAN. ) SOLID_ANGLE_UNIT ( ) );
#115 = COORDINATED_UNIVERSAL_TIME_OFFSET ( 1, 0, .AHEAD. ) ;
#116 = APPLICATION_PROTOCOL_DEFINITION ( 'international standard', 'config_control_design', 1994, #77 ) ;
#117 = ORIENTED_EDGE ( 'NONE', *, *, #84, .F. ) ;
#118 = APPROVAL_DATE_TIME ( #65, #223 ) ;
#119 = CARTESIAN_POINT ( 'NONE',  ( 4.340963183425635874E-14, -1.522604920913070439E-15, 12.43301270189222940 ) ) ;
#120 = ORIENTED_EDGE ( 'NONE', *, *, #90, .F. ) ;
#121 = CC_DESIGN_PERSON_AND_ORGANIZATION_ASSIGNMENT ( #11, #218, ( #173 ) ) ;
#122 = EDGE_LOOP ( 'NONE', ( #71 ) ) ;
#123 = AXIS2_PLACEMENT_3D ( 'NONE', #119, #85, #70 ) ;
#124 = FACE_OUTER_BOUND ( 'NONE', #171, .T. ) ;
#125 = DIRECTION ( 'NONE',  ( -3.491481338843133355E-15, 1.224646799147353207E-16, -1.000000000000000000 ) ) ;
#126 = CARTESIAN_POINT ( 'NONE',  ( 2.097893638580469248E-15, -7.358420338258021822E-17, 0.6008606190275629366 ) ) ;
#127 = CC_DESIGN_APPROVAL ( #223, ( #166 ) ) ;
#128 = DIRECTION ( 'NONE',  ( -3.851859888774496667E-31, -1.000000000000000000, -1.084202172485511460E-16 ) ) ;
#129 = PLANE ( 'NONE',  #101 ) ;
#130 = PERSON_AND_ORGANIZATION ( #8, #22 ) ;
#131 = CIRCLE ( 'NONE', #44, 0.9999999999999935607 ) ;
#132 = SECURITY_CLASSIFICATION_LEVEL ( 'unclassified' ) ;
#133 = CALENDAR_DATE ( 2021, 7, 10 ) ;
#134 = DATE_AND_TIME ( #148, #3 ) ;
#135 = PRODUCT_DEFINITION_SHAPE ( 'NONE', 'NONE',  #217 ) ;
#136 = ORIENTED_EDGE ( 'NONE', *, *, #67, .T. ) ;
#137 = MANIFOLD_SOLID_BREP ( 'Corps-Déplacer/Copier1[2]', #18 ) ;
#138 = LOCAL_TIME ( 15, 48, 16.00000000000000000, #62 ) ;
#139 = FACE_OUTER_BOUND ( 'NONE', #68, .T. ) ;
#140 = CC_DESIGN_PERSON_AND_ORGANIZATION_ASSIGNMENT ( #81, #41, ( #166 ) ) ;
#141 = ORIENTED_EDGE ( 'NONE', *, *, #186, .F. ) ;
#142 = AXIS2_PLACEMENT_3D ( 'NONE', #208, #125, #192 ) ;
#143 = DIRECTION ( 'NONE',  ( 4.275831445896959482E-31, 1.000000000000000000, 1.224646799147353454E-16 ) ) ;
#144 = DIRECTION ( 'NONE',  ( -3.491481338843133355E-15, 1.224646799147353207E-16, -1.000000000000000000 ) ) ;
#145 = CARTESIAN_POINT ( 'NONE',  ( 4.189777606611760026E-14, 0.9999999999999931166, 12.00000000000000000 ) ) ;
#146 = DIRECTION ( 'NONE',  ( 3.491481338843133355E-15, -1.224646799147353207E-16, 1.000000000000000000 ) ) ;
#147 = CARTESIAN_POINT ( 'NONE',  ( 1.501336975702547217E-13, 0.9499999999999955147, 43.00000000000000000 ) ) ;
#148 = CALENDAR_DATE ( 2021, 7, 10 ) ;
#149 = PERSON_AND_ORGANIZATION_ROLE ( 'creator' ) ;
#150 = PERSON_AND_ORGANIZATION ( #8, #22 ) ;
#151 = ADVANCED_BREP_SHAPE_REPRESENTATION ( '466', ( #204, #137, #163 ), #47 ) ;
#152 = APPLICATION_PROTOCOL_DEFINITION ( 'international standard', 'config_control_design', 1994, #190 ) ;
#153 = APPROVAL ( #197, 'UNSPECIFIED' ) ;
#154 = ORIENTED_EDGE ( 'NONE', *, *, #90, .T. ) ;
#155 = CC_DESIGN_SECURITY_CLASSIFICATION ( #166, ( #64 ) ) ;
#156 = CARTESIAN_POINT ( 'NONE',  ( 1.501336975702547217E-13, -5.265981236333618470E-15, 43.00000000000000000 ) ) ;
#157 = CARTESIAN_POINT ( 'NONE',  ( 4.189777606611760026E-14, 7.498798913309223722E-33, 12.00000000000000000 ) ) ;
#158 = AXIS2_PLACEMENT_3D ( 'NONE', #126, #146, #128 ) ;
#159 = PLANE ( 'NONE',  #80 ) ;
#160 = VERTEX_POINT ( 'NONE', #145 ) ;
#161 = ADVANCED_FACE ( 'NONE', ( #34, #212 ), #193, .T. ) ;
#162 = CARTESIAN_POINT ( 'NONE',  ( 2.097893638580469248E-15, -7.358420338258021822E-17, 0.6008606190275629366 ) ) ;
#163 = AXIS2_PLACEMENT_3D ( 'NONE', #200, #27, #37 ) ;
#164 = APPROVAL_DATE_TIME ( #28, #153 ) ;
#165 = DATE_TIME_ROLE ( 'classification_date' ) ;
#166 = SECURITY_CLASSIFICATION ( '', '', #132 ) ;
#167 = CC_DESIGN_PERSON_AND_ORGANIZATION_ASSIGNMENT ( #60, #12, ( #217 ) ) ;
#168 =( NAMED_UNIT ( * ) PLANE_ANGLE_UNIT ( ) SI_UNIT ( $, .RADIAN. ) );
#169 = DESIGN_CONTEXT ( 'detailed design', #77, 'design' ) ;
#170 = ORIENTED_EDGE ( 'NONE', *, *, #186, .T. ) ;
#171 = EDGE_LOOP ( 'NONE', ( #141 ) ) ;
#172 = AXIS2_PLACEMENT_3D ( 'NONE', #21, #75, #4 ) ;
#173 = PRODUCT ( '466', '466', '', ( #42 ) ) ;
#174 = ORIENTED_EDGE ( 'NONE', *, *, #49, .F. ) ;
#175 = CIRCLE ( 'NONE', #98, 0.9500000000000008438 ) ;
#176 = DIRECTION ( 'NONE',  ( -3.491481338843133355E-15, 1.224646799147353207E-16, -1.000000000000000000 ) ) ;
#177 = DIRECTION ( 'NONE',  ( -3.491481338843133355E-15, 1.224646799147353207E-16, -1.000000000000000000 ) ) ;
#178 = FACE_OUTER_BOUND ( 'NONE', #219, .T. ) ;
#179 = DIRECTION ( 'NONE',  ( 3.491481338843133355E-15, -1.224646799147353207E-16, 1.000000000000000000 ) ) ;
#180 = CC_DESIGN_PERSON_AND_ORGANIZATION_ASSIGNMENT ( #79, #149, ( #64 ) ) ;
#181 = CARTESIAN_POINT ( 'NONE',  ( 4.189777606611760026E-14, -1.469576158976823947E-15, 12.00000000000000000 ) ) ;
#182 = APPROVAL_STATUS ( 'not_yet_approved' ) ;
#183 = DATE_AND_TIME ( #39, #138 ) ;
#184 = APPROVAL_PERSON_ORGANIZATION ( #29, #194, #63 ) ;
#185 = CC_DESIGN_DATE_AND_TIME_ASSIGNMENT ( #183, #199, ( #217 ) ) ;
#186 = EDGE_CURVE ( 'NONE', #93, #93, #9, .T. ) ;
#187 = APPROVAL_ROLE ( '' ) ;
#188 = EDGE_LOOP ( 'NONE', ( #66 ) ) ;
#189 = APPROVAL_PERSON_ORGANIZATION ( #130, #153, #38 ) ;
#190 = APPLICATION_CONTEXT ( 'configuration controlled 3d designs of mechanical parts and assemblies' ) ;
#191 = DIRECTION ( 'NONE',  ( 0.0000000000000000000, 1.000000000000000000, 0.0000000000000000000 ) ) ;
#192 = DIRECTION ( 'NONE',  ( 0.0000000000000000000, 1.000000000000000000, 0.0000000000000000000 ) ) ;
#193 = CYLINDRICAL_SURFACE ( 'NONE', #211, 0.9999999999999940048 ) ;
#194 = APPROVAL ( #182, 'UNSPECIFIED' ) ;
#195 = VERTEX_POINT ( 'NONE', #36 ) ;
#196 = CARTESIAN_POINT ( 'NONE',  ( 4.340963183425635874E-14, 1.249999999999995559, 12.43301270189222940 ) ) ;
#197 = APPROVAL_STATUS ( 'not_yet_approved' ) ;
#198 = ADVANCED_FACE ( 'NONE', ( #206 ), #129, .T. ) ;
#199 = DATE_TIME_ROLE ( 'creation_date' ) ;
#200 = CARTESIAN_POINT ( 'NONE',  ( 0.0000000000000000000, 0.0000000000000000000, 0.0000000000000000000 ) ) ;
#201 = LOCAL_TIME ( 15, 48, 16.00000000000000000, #112 ) ;
#202 = EDGE_LOOP ( 'NONE', ( #154 ) ) ;
#203 = CONICAL_SURFACE ( 'NONE', #123, 1.249999999999996891, 0.5235987755982940417 ) ;
#204 = MANIFOLD_SOLID_BREP ( 'Corps-Déplacer/Copier1[1]', #103 ) ;
#205 = ORIENTED_EDGE ( 'NONE', *, *, #43, .F. ) ;
#206 = FACE_OUTER_BOUND ( 'NONE', #102, .T. ) ;
#207 = AXIS2_PLACEMENT_3D ( 'NONE', #106, #144, #191 ) ;
#208 = CARTESIAN_POINT ( 'NONE',  ( 1.501336975702547217E-13, -5.265981236333618470E-15, 43.00000000000000000 ) ) ;
#209 = DIRECTION ( 'NONE',  ( 3.851859888774496667E-31, 1.000000000000000000, 1.084202172485511460E-16 ) ) ;
#210 = VERTEX_POINT ( 'NONE', #56 ) ;
#211 = AXIS2_PLACEMENT_3D ( 'NONE', #58, #110, #72 ) ;
#212 = FACE_OUTER_BOUND ( 'NONE', #122, .T. ) ;
#213 = CARTESIAN_POINT ( 'NONE',  ( 1.490862531686017501E-13, 1.249999999999995559, 42.69999999999998863 ) ) ;
#214 = CIRCLE ( 'NONE', #57, 0.9999999999999945599 ) ;
#215 = PERSON_AND_ORGANIZATION ( #8, #22 ) ;
#216 = APPROVAL_STATUS ( 'not_yet_approved' ) ;
#217 = PRODUCT_DEFINITION ( 'UNKNOWN', '', #64, #169 ) ;
#218 = PERSON_AND_ORGANIZATION_ROLE ( 'design_owner' ) ;
#219 = EDGE_LOOP ( 'NONE', ( #120 ) ) ;
#220 = ORIENTED_EDGE ( 'NONE', *, *, #67, .F. ) ;
#221 = CONICAL_SURFACE ( 'NONE', #158, 0.9999999999999935607, 1.029744258676649649 ) ;
#222 = CALENDAR_DATE ( 2021, 7, 10 ) ;
#223 = APPROVAL ( #216, 'UNSPECIFIED' ) ;
ENDSEC;
END-ISO-10303-21;
