ISO-10303-21;
HEADER;
FILE_DESCRIPTION (( 'STEP AP203' ),
    '1' );
FILE_NAME ('46567.step',
    '2021-11-05T14:46:24',
    ( '' ),
    ( '' ),
    'SwSTEP 2.0',
    'SolidWorks 2019',
    '' );
FILE_SCHEMA (( 'CONFIG_CONTROL_DESIGN' ));
ENDSEC;

DATA;
#1 = APPROVAL ( #148, 'UNSPECIFIED' ) ;
#2 = DIRECTION ( 'NONE',  ( -3.491481338843133355E-15, 1.224646799147353207E-16, -1.000000000000000000 ) ) ;
#3 = FACE_OUTER_BOUND ( 'NONE', #134, .T. ) ;
#4 = FACE_OUTER_BOUND ( 'NONE', #217, .T. ) ;
#5 = EDGE_LOOP ( 'NONE', ( #193 ) ) ;
#6 = DATE_AND_TIME ( #154, #80 ) ;
#7 = DIRECTION ( 'NONE',  ( 0.0000000000000000000, 1.000000000000000000, 0.0000000000000000000 ) ) ;
#8 = APPLICATION_CONTEXT ( 'configuration controlled 3d designs of mechanical parts and assemblies' ) ;
#9 =( NAMED_UNIT ( * ) PLANE_ANGLE_UNIT ( ) SI_UNIT ( $, .RADIAN. ) );
#10 = PLANE ( 'NONE',  #159 ) ;
#11 = DIRECTION ( 'NONE',  ( -4.275831445896958607E-31, -1.000000000000000000, -1.224646799147353207E-16 ) ) ;
#12 = MANIFOLD_SOLID_BREP ( 'Corps-Déplacer/Copier1[2]', #30 ) ;
#13 = AXIS2_PLACEMENT_3D ( 'NONE', #219, #183, #7 ) ;
#14 = APPROVAL_DATE_TIME ( #124, #1 ) ;
#15 = CC_DESIGN_DATE_AND_TIME_ASSIGNMENT ( #53, #198, ( #186 ) ) ;
#16 = VERTEX_POINT ( 'NONE', #221 ) ;
#17 =( LENGTH_UNIT ( ) NAMED_UNIT ( * ) SI_UNIT ( .MILLI., .METRE. ) );
#18 = DIRECTION ( 'NONE',  ( -3.491481338843133355E-15, 1.224646799147353207E-16, -1.000000000000000000 ) ) ;
#19 = AXIS2_PLACEMENT_3D ( 'NONE', #120, #142, #197 ) ;
#20 = EDGE_CURVE ( 'NONE', #73, #73, #109, .T. ) ;
#21 = CARTESIAN_POINT ( 'NONE',  ( 2.426579530495977493E-13, -8.511295254074105418E-15, 69.50000000000000000 ) ) ;
#22 = PLANE ( 'NONE',  #19 ) ;
#23 = UNCERTAINTY_MEASURE_WITH_UNIT (LENGTH_MEASURE( 1.000000000000000082E-05 ), #17, 'distance_accuracy_value', 'NONE');
#24 = APPROVAL_ROLE ( '' ) ;
#25 = CALENDAR_DATE ( 2021, 5, 11 ) ;
#26 = APPROVAL_DATE_TIME ( #90, #87 ) ;
#27 = CC_DESIGN_PERSON_AND_ORGANIZATION_ASSIGNMENT ( #222, #125, ( #111 ) ) ;
#28 = DIRECTION ( 'NONE',  ( 3.491481338843133355E-15, -0.0000000000000000000, 1.000000000000000000 ) ) ;
#29 = ORIENTED_EDGE ( 'NONE', *, *, #66, .T. ) ;
#30 = CLOSED_SHELL ( 'NONE', ( #128, #178, #116, #210 ) ) ;
#31 = EDGE_LOOP ( 'NONE', ( #212 ) ) ;
#32 = EDGE_LOOP ( 'NONE', ( #89 ) ) ;
#33 = DIRECTION ( 'NONE',  ( 3.491481338843133355E-15, -1.224646799147353207E-16, 1.000000000000000000 ) ) ;
#34 = CARTESIAN_POINT ( 'NONE',  ( 8.728703347107833388E-14, 4.499279347985564065E-32, 25.00000000000000000 ) ) ;
#35 = VERTEX_POINT ( 'NONE', #82 ) ;
#36 = CC_DESIGN_PERSON_AND_ORGANIZATION_ASSIGNMENT ( #167, #61, ( #186 ) ) ;
#37 = EDGE_LOOP ( 'NONE', ( #98 ) ) ;
#38 = PERSON_AND_ORGANIZATION ( #45, #47 ) ;
#39 = CARTESIAN_POINT ( 'NONE',  ( 0.0000000000000000000, 0.0000000000000000000, 0.0000000000000000000 ) ) ;
#40 = AXIS2_PLACEMENT_3D ( 'NONE', #185, #156, #52 ) ;
#41 = DIRECTION ( 'NONE',  ( 3.491481338843133355E-15, -1.224646799147353207E-16, 1.000000000000000000 ) ) ;
#42 = EDGE_LOOP ( 'NONE', ( #54 ) ) ;
#43 = AXIS2_PLACEMENT_3D ( 'NONE', #75, #143, #140 ) ;
#44 = APPROVAL_ROLE ( '' ) ;
#45 = PERSON ( 'UNSPECIFIED', 'UNSPECIFIED', 'UNSPECIFIED', ('UNSPECIFIED'), ('UNSPECIFIED'), ('UNSPECIFIED') ) ;
#46 = APPROVAL_STATUS ( 'not_yet_approved' ) ;
#47 = ORGANIZATION ( 'UNSPECIFIED', 'UNSPECIFIED', '' ) ;
#48 = CARTESIAN_POINT ( 'NONE',  ( 2.444036937190193601E-13, -8.572527594031472993E-15, 70.00000000000000000 ) ) ;
#49 = EDGE_CURVE ( 'NONE', #16, #16, #170, .T. ) ;
#50 = APPLICATION_CONTEXT ( 'configuration controlled 3d designs of mechanical parts and assemblies' ) ;
#51 = SHAPE_DEFINITION_REPRESENTATION ( #78, #176 ) ;
#52 = DIRECTION ( 'NONE',  ( 0.0000000000000000000, 1.000000000000000000, 0.0000000000000000000 ) ) ;
#53 = DATE_AND_TIME ( #137, #149 ) ;
#54 = ORIENTED_EDGE ( 'NONE', *, *, #49, .T. ) ;
#55 = ORIENTED_EDGE ( 'NONE', *, *, #66, .F. ) ;
#56 = CARTESIAN_POINT ( 'NONE',  ( 6.982962677686266711E-16, 0.0000000000000000000, 0.2000000000000000111 ) ) ;
#57 = CARTESIAN_POINT ( 'NONE',  ( 2.426579530495977493E-13, 5.999999999999991118, 69.50000000000000000 ) ) ;
#58 = LOCAL_TIME ( 15, 46, 24.00000000000000000, #108 ) ;
#59 = DATE_TIME_ROLE ( 'creation_date' ) ;
#60 = EDGE_CURVE ( 'NONE', #100, #100, #195, .T. ) ;
#61 = PERSON_AND_ORGANIZATION_ROLE ( 'classification_officer' ) ;
#62 = CLOSED_SHELL ( 'NONE', ( #215, #207, #126, #138 ) ) ;
#63 = LOCAL_TIME ( 15, 46, 24.00000000000000000, #94 ) ;
#64 = EDGE_LOOP ( 'NONE', ( #55 ) ) ;
#65 = FACE_OUTER_BOUND ( 'NONE', #42, .T. ) ;
#66 = EDGE_CURVE ( 'NONE', #181, #181, #223, .T. ) ;
#67 = DESIGN_CONTEXT ( 'detailed design', #8, 'design' ) ;
#68 = ORIENTED_EDGE ( 'NONE', *, *, #20, .T. ) ;
#69 = CARTESIAN_POINT ( 'NONE',  ( 5.800000000000002487, 0.0000000000000000000, -2.025059176529017977E-14 ) ) ;
#70 = COORDINATED_UNIVERSAL_TIME_OFFSET ( 1, 0, .AHEAD. ) ;
#71 = DIRECTION ( 'NONE',  ( -4.275831445896958607E-31, -1.000000000000000000, -1.224646799147353207E-16 ) ) ;
#72 = CARTESIAN_POINT ( 'NONE',  ( 0.0000000000000000000, 0.0000000000000000000, 0.0000000000000000000 ) ) ;
#73 = VERTEX_POINT ( 'NONE', #139 ) ;
#74 = AXIS2_PLACEMENT_3D ( 'NONE', #88, #102, #71 ) ;
#75 = CARTESIAN_POINT ( 'NONE',  ( 8.728703347107833388E-14, -3.061616997868383043E-15, 25.00000000000000000 ) ) ;
#76 = APPLICATION_PROTOCOL_DEFINITION ( 'international standard', 'config_control_design', 1994, #8 ) ;
#77 = AXIS2_PLACEMENT_3D ( 'NONE', #153, #107, #155 ) ;
#78 = PRODUCT_DEFINITION_SHAPE ( 'NONE', 'NONE',  #111 ) ;
#79 = CC_DESIGN_PERSON_AND_ORGANIZATION_ASSIGNMENT ( #165, #93, ( #123 ) ) ;
#80 = LOCAL_TIME ( 15, 46, 24.00000000000000000, #106 ) ;
#81 = CYLINDRICAL_SURFACE ( 'NONE', #77, 5.999999999999992895 ) ;
#82 = CARTESIAN_POINT ( 'NONE',  ( 2.444036937190193601E-13, 5.499999999999991118, 70.00000000000000000 ) ) ;
#83 = FACE_OUTER_BOUND ( 'NONE', #5, .T. ) ;
#84 = ORIENTED_EDGE ( 'NONE', *, *, #20, .F. ) ;
#85 = CARTESIAN_POINT ( 'NONE',  ( 8.728703347107833388E-14, 5.999999999999991118, 25.00000000000000000 ) ) ;
#86 = DIRECTION ( 'NONE',  ( -4.275831445896958607E-31, -1.000000000000000000, -1.224646799147353207E-16 ) ) ;
#87 = APPROVAL ( #46, 'UNSPECIFIED' ) ;
#88 = CARTESIAN_POINT ( 'NONE',  ( -1.068961779941895936E-30, 3.749413200789030543E-32, -3.061628220805801239E-16 ) ) ;
#89 = ORIENTED_EDGE ( 'NONE', *, *, #60, .T. ) ;
#90 = DATE_AND_TIME ( #25, #63 ) ;
#91 = PERSON_AND_ORGANIZATION_ROLE ( 'creator' ) ;
#92 = APPROVAL ( #218, 'UNSPECIFIED' ) ;
#93 = PERSON_AND_ORGANIZATION_ROLE ( 'design_supplier' ) ;
#94 = COORDINATED_UNIVERSAL_TIME_OFFSET ( 1, 0, .AHEAD. ) ;
#95 = PRODUCT ( '46567', '46567', '', ( #110 ) ) ;
#96 = CIRCLE ( 'NONE', #158, 6.000000000000000000 ) ;
#97 = DIRECTION ( 'NONE',  ( 0.0000000000000000000, 1.000000000000000000, 0.0000000000000000000 ) ) ;
#98 = ORIENTED_EDGE ( 'NONE', *, *, #220, .F. ) ;
#99 = AXIS2_PLACEMENT_3D ( 'NONE', #48, #2, #114 ) ;
#100 = VERTEX_POINT ( 'NONE', #85 ) ;
#101 = FACE_OUTER_BOUND ( 'NONE', #31, .T. ) ;
#102 = DIRECTION ( 'NONE',  ( 3.491481338843133355E-15, -1.224646799147353207E-16, 1.000000000000000000 ) ) ;
#103 = CC_DESIGN_SECURITY_CLASSIFICATION ( #186, ( #123 ) ) ;
#104 = PLANE ( 'NONE',  #132 ) ;
#105 = EDGE_CURVE ( 'NONE', #175, #175, #96, .T. ) ;
#106 = COORDINATED_UNIVERSAL_TIME_OFFSET ( 1, 0, .AHEAD. ) ;
#107 = DIRECTION ( 'NONE',  ( -3.491481338843133355E-15, 1.224646799147353207E-16, -1.000000000000000000 ) ) ;
#108 = COORDINATED_UNIVERSAL_TIME_OFFSET ( 1, 0, .AHEAD. ) ;
#109 = CIRCLE ( 'NONE', #43, 5.999999999999994671 ) ;
#110 = MECHANICAL_CONTEXT ( 'NONE', #50, 'mechanical' ) ;
#111 = PRODUCT_DEFINITION ( 'UNKNOWN', '', #123, #67 ) ;
#112 = EDGE_LOOP ( 'NONE', ( #152 ) ) ;
#113 = PRODUCT_RELATED_PRODUCT_CATEGORY ( 'detail', '', ( #95 ) ) ;
#114 = DIRECTION ( 'NONE',  ( 0.0000000000000000000, 1.000000000000000000, 0.0000000000000000000 ) ) ;
#115 = FACE_OUTER_BOUND ( 'NONE', #174, .T. ) ;
#116 = ADVANCED_FACE ( 'NONE', ( #190, #3 ), #118, .T. ) ;
#117 =( NAMED_UNIT ( * ) SI_UNIT ( $, .STERADIAN. ) SOLID_ANGLE_UNIT ( ) );
#118 = CONICAL_SURFACE ( 'NONE', #200, 6.000000000000000000, 0.7853981633974430610 ) ;
#119 = FACE_OUTER_BOUND ( 'NONE', #32, .T. ) ;
#120 = CARTESIAN_POINT ( 'NONE',  ( 2.444036937190193601E-13, 4.124339402320095284E-32, 70.00000000000000000 ) ) ;
#121 = DIRECTION ( 'NONE',  ( 3.491481338843133355E-15, -0.0000000000000000000, 1.000000000000000000 ) ) ;
#122 = CALENDAR_DATE ( 2021, 5, 11 ) ;
#123 = PRODUCT_DEFINITION_FORMATION_WITH_SPECIFIED_SOURCE ( 'ANY', '', #95, .NOT_KNOWN. ) ;
#124 = DATE_AND_TIME ( #122, #58 ) ;
#125 = PERSON_AND_ORGANIZATION_ROLE ( 'creator' ) ;
#126 = ADVANCED_FACE ( 'NONE', ( #115, #150 ), #214, .T. ) ;
#127 = DIRECTION ( 'NONE',  ( -3.491481338843133355E-15, 1.224646799147353207E-16, -1.000000000000000000 ) ) ;
#128 = ADVANCED_FACE ( 'NONE', ( #4, #65 ), #81, .T. ) ;
#129 = EDGE_LOOP ( 'NONE', ( #84 ) ) ;
#130 = DIRECTION ( 'NONE',  ( 1.000000000000000000, 0.0000000000000000000, -3.492034497213728733E-15 ) ) ;
#131 = AXIS2_PLACEMENT_3D ( 'NONE', #56, #121, #204 ) ;
#132 = AXIS2_PLACEMENT_3D ( 'NONE', #135, #41, #11 ) ;
#133 = ORIENTED_EDGE ( 'NONE', *, *, #105, .F. ) ;
#134 = EDGE_LOOP ( 'NONE', ( #172 ) ) ;
#135 = CARTESIAN_POINT ( 'NONE',  ( 8.728703347107833388E-14, 4.499279347985564065E-32, 25.00000000000000000 ) ) ;
#136 = CARTESIAN_POINT ( 'NONE',  ( 0.0000000000000000000, 0.0000000000000000000, 0.0000000000000000000 ) ) ;
#137 = CALENDAR_DATE ( 2021, 5, 11 ) ;
#138 = ADVANCED_FACE ( 'NONE', ( #160 ), #22, .F. ) ;
#139 = CARTESIAN_POINT ( 'NONE',  ( 8.728703347107833388E-14, 5.999999999999991118, 25.00000000000000000 ) ) ;
#140 = DIRECTION ( 'NONE',  ( 0.0000000000000000000, 1.000000000000000000, 0.0000000000000000000 ) ) ;
#141 = CYLINDRICAL_SURFACE ( 'NONE', #171, 5.999999999999997335 ) ;
#142 = DIRECTION ( 'NONE',  ( -3.491481338843133355E-15, 1.224646799147353207E-16, -1.000000000000000000 ) ) ;
#143 = DIRECTION ( 'NONE',  ( -3.491481338843133355E-15, 1.224646799147353207E-16, -1.000000000000000000 ) ) ;
#144 = CC_DESIGN_PERSON_AND_ORGANIZATION_ASSIGNMENT ( #187, #91, ( #123 ) ) ;
#145 = PERSON_AND_ORGANIZATION ( #45, #47 ) ;
#146 = CC_DESIGN_APPROVAL ( #92, ( #186 ) ) ;
#147 = COORDINATED_UNIVERSAL_TIME_OFFSET ( 1, 0, .AHEAD. ) ;
#148 = APPROVAL_STATUS ( 'not_yet_approved' ) ;
#149 = LOCAL_TIME ( 15, 46, 24.00000000000000000, #70 ) ;
#150 = FACE_BOUND ( 'NONE', #112, .T. ) ;
#151 = EDGE_LOOP ( 'NONE', ( #29 ) ) ;
#152 = ORIENTED_EDGE ( 'NONE', *, *, #220, .T. ) ;
#153 = CARTESIAN_POINT ( 'NONE',  ( 0.0000000000000000000, 0.0000000000000000000, 0.0000000000000000000 ) ) ;
#154 = CALENDAR_DATE ( 2021, 5, 11 ) ;
#155 = DIRECTION ( 'NONE',  ( 4.275831445896958607E-31, 1.000000000000000000, 1.224646799147353207E-16 ) ) ;
#156 = DIRECTION ( 'NONE',  ( -3.491481338843133355E-15, 1.224646799147353207E-16, -1.000000000000000000 ) ) ;
#157 = CC_DESIGN_PERSON_AND_ORGANIZATION_ASSIGNMENT ( #208, #184, ( #95 ) ) ;
#158 = AXIS2_PLACEMENT_3D ( 'NONE', #21, #127, #97 ) ;
#159 = AXIS2_PLACEMENT_3D ( 'NONE', #34, #33, #86 ) ;
#160 = FACE_OUTER_BOUND ( 'NONE', #37, .T. ) ;
#161 = FACE_OUTER_BOUND ( 'NONE', #129, .T. ) ;
#162 = APPROVAL_PERSON_ORGANIZATION ( #145, #1, #24 ) ;
#163 = DATE_AND_TIME ( #188, #206 ) ;
#164 = MANIFOLD_SOLID_BREP ( 'Corps-Déplacer/Copier1[1]', #62 ) ;
#165 = PERSON_AND_ORGANIZATION ( #45, #47 ) ;
#166 = SECURITY_CLASSIFICATION_LEVEL ( 'unclassified' ) ;
#167 = PERSON_AND_ORGANIZATION ( #45, #47 ) ;
#168 = APPROVAL_PERSON_ORGANIZATION ( #38, #92, #202 ) ;
#169 = PERSON_AND_ORGANIZATION ( #45, #47 ) ;
#170 = CIRCLE ( 'NONE', #131, 6.000000000000000000 ) ;
#171 = AXIS2_PLACEMENT_3D ( 'NONE', #72, #18, #177 ) ;
#172 = ORIENTED_EDGE ( 'NONE', *, *, #49, .F. ) ;
#173 = CC_DESIGN_DATE_AND_TIME_ASSIGNMENT ( #163, #59, ( #111 ) ) ;
#174 = EDGE_LOOP ( 'NONE', ( #133 ) ) ;
#175 = VERTEX_POINT ( 'NONE', #57 ) ;
#176 = ADVANCED_BREP_SHAPE_REPRESENTATION ( '46567', ( #164, #12, #192 ), #180 ) ;
#177 = DIRECTION ( 'NONE',  ( 4.275831445896958607E-31, 1.000000000000000000, 1.224646799147353454E-16 ) ) ;
#178 = ADVANCED_FACE ( 'NONE', ( #161 ), #10, .T. ) ;
#179 = APPLICATION_PROTOCOL_DEFINITION ( 'international standard', 'config_control_design', 1994, #50 ) ;
#180 =( GEOMETRIC_REPRESENTATION_CONTEXT ( 3 ) GLOBAL_UNCERTAINTY_ASSIGNED_CONTEXT ( ( #23 ) ) GLOBAL_UNIT_ASSIGNED_CONTEXT ( ( #17, #9, #117 ) ) REPRESENTATION_CONTEXT ( 'NONE', 'WORKASPACE' ) );
#181 = VERTEX_POINT ( 'NONE', #69 ) ;
#182 = DIRECTION ( 'NONE',  ( 1.000000000000000000, 0.0000000000000000000, -3.491481338843132961E-15 ) ) ;
#183 = DIRECTION ( 'NONE',  ( -3.491481338843133355E-15, 1.224646799147353207E-16, -1.000000000000000000 ) ) ;
#184 = PERSON_AND_ORGANIZATION_ROLE ( 'design_owner' ) ;
#185 = CARTESIAN_POINT ( 'NONE',  ( 8.728703347107833388E-14, -3.061616997868383043E-15, 25.00000000000000000 ) ) ;
#186 = SECURITY_CLASSIFICATION ( '', '', #166 ) ;
#187 = PERSON_AND_ORGANIZATION ( #45, #47 ) ;
#188 = CALENDAR_DATE ( 2021, 5, 11 ) ;
#189 = CC_DESIGN_APPROVAL ( #1, ( #111 ) ) ;
#190 = FACE_BOUND ( 'NONE', #151, .T. ) ;
#191 = AXIS2_PLACEMENT_3D ( 'NONE', #136, #201, #182 ) ;
#192 = AXIS2_PLACEMENT_3D ( 'NONE', #39, #199, #205 ) ;
#193 = ORIENTED_EDGE ( 'NONE', *, *, #60, .F. ) ;
#194 = CARTESIAN_POINT ( 'NONE',  ( 6.982962677686266711E-16, 0.0000000000000000000, 0.2000000000000000111 ) ) ;
#195 = CIRCLE ( 'NONE', #40, 5.999999999999994671 ) ;
#196 = CIRCLE ( 'NONE', #13, 5.500000000000000000 ) ;
#197 = DIRECTION ( 'NONE',  ( 4.275831445896958607E-31, 1.000000000000000000, 1.224646799147353207E-16 ) ) ;
#198 = DATE_TIME_ROLE ( 'classification_date' ) ;
#199 = DIRECTION ( 'NONE',  ( 0.0000000000000000000, 0.0000000000000000000, 1.000000000000000000 ) ) ;
#200 = AXIS2_PLACEMENT_3D ( 'NONE', #194, #28, #130 ) ;
#201 = DIRECTION ( 'NONE',  ( 3.491481338843133355E-15, -0.0000000000000000000, 1.000000000000000000 ) ) ;
#202 = APPROVAL_ROLE ( '' ) ;
#203 = FACE_OUTER_BOUND ( 'NONE', #64, .T. ) ;
#204 = DIRECTION ( 'NONE',  ( 1.000000000000000000, 0.0000000000000000000, -3.492034497213728733E-15 ) ) ;
#205 = DIRECTION ( 'NONE',  ( 1.000000000000000000, 0.0000000000000000000, 0.0000000000000000000 ) ) ;
#206 = LOCAL_TIME ( 15, 46, 24.00000000000000000, #147 ) ;
#207 = ADVANCED_FACE ( 'NONE', ( #83, #101 ), #141, .T. ) ;
#208 = PERSON_AND_ORGANIZATION ( #45, #47 ) ;
#209 = APPROVAL_PERSON_ORGANIZATION ( #169, #87, #44 ) ;
#210 = ADVANCED_FACE ( 'NONE', ( #203 ), #216, .F. ) ;
#211 = CC_DESIGN_APPROVAL ( #87, ( #123 ) ) ;
#212 = ORIENTED_EDGE ( 'NONE', *, *, #105, .T. ) ;
#213 = APPROVAL_DATE_TIME ( #6, #92 ) ;
#214 = CONICAL_SURFACE ( 'NONE', #99, 5.500000000000000000, 0.7853981633974482790 ) ;
#215 = ADVANCED_FACE ( 'NONE', ( #119 ), #104, .F. ) ;
#216 = PLANE ( 'NONE',  #74 ) ;
#217 = EDGE_LOOP ( 'NONE', ( #68 ) ) ;
#218 = APPROVAL_STATUS ( 'not_yet_approved' ) ;
#219 = CARTESIAN_POINT ( 'NONE',  ( 2.444036937190193601E-13, -8.572527594031472993E-15, 70.00000000000000000 ) ) ;
#220 = EDGE_CURVE ( 'NONE', #35, #35, #196, .T. ) ;
#221 = CARTESIAN_POINT ( 'NONE',  ( 6.000000000000000888, 0.0000000000000000000, 0.1999999999999790556 ) ) ;
#222 = PERSON_AND_ORGANIZATION ( #45, #47 ) ;
#223 = CIRCLE ( 'NONE', #191, 5.800000000000002487 ) ;
ENDSEC;
END-ISO-10303-21;
