ISO-10303-21;
HEADER;
FILE_DESCRIPTION (( 'STEP AP203' ),
    '1' );
FILE_NAME ('46566.step',
    '2021-11-05T14:46:23',
    ( '' ),
    ( '' ),
    'SwSTEP 2.0',
    'SolidWorks 2019',
    '' );
FILE_SCHEMA (( 'CONFIG_CONTROL_DESIGN' ));
ENDSEC;

DATA;
#1 = DIRECTION ( 'NONE',  ( 3.491481338843133355E-15, -0.0000000000000000000, 1.000000000000000000 ) ) ;
#2 = ADVANCED_FACE ( 'NONE', ( #195 ), #41, .F. ) ;
#3 = VERTEX_POINT ( 'NONE', #79 ) ;
#4 = AXIS2_PLACEMENT_3D ( 'NONE', #182, #132, #181 ) ;
#5 = FACE_OUTER_BOUND ( 'NONE', #97, .T. ) ;
#6 = DIRECTION ( 'NONE',  ( -3.491481338843133355E-15, 1.224646799147353207E-16, -1.000000000000000000 ) ) ;
#7 = EDGE_LOOP ( 'NONE', ( #81 ) ) ;
#8 = DIRECTION ( 'NONE',  ( -3.491481338843133355E-15, 1.224646799147353207E-16, -1.000000000000000000 ) ) ;
#9 = ORIENTED_EDGE ( 'NONE', *, *, #107, .T. ) ;
#10 = DIRECTION ( 'NONE',  ( 3.491481338843133355E-15, -1.224646799147353207E-16, 1.000000000000000000 ) ) ;
#11 = EDGE_CURVE ( 'NONE', #3, #3, #51, .T. ) ;
#12 = APPROVAL ( #50, 'UNSPECIFIED' ) ;
#13 = CALENDAR_DATE ( 2021, 5, 11 ) ;
#15 = CALENDAR_DATE ( 2021, 5, 11 ) ;
#14 = DATE_TIME_ROLE ( 'classification_date' ) ;
#16 = AXIS2_PLACEMENT_3D ( 'NONE', #193, #82, #179 ) ;
#17 = DIRECTION ( 'NONE',  ( 4.275831445896959482E-31, 1.000000000000000000, 1.224646799147353207E-16 ) ) ;
#18 = FACE_OUTER_BOUND ( 'NONE', #40, .T. ) ;
#19 = CC_DESIGN_PERSON_AND_ORGANIZATION_ASSIGNMENT ( #48, #89, ( #168 ) ) ;
#20 = FACE_OUTER_BOUND ( 'NONE', #176, .T. ) ;
#21 = PERSON_AND_ORGANIZATION ( #138, #47 ) ;
#22 = FACE_BOUND ( 'NONE', #61, .T. ) ;
#23 = EDGE_LOOP ( 'NONE', ( #125 ) ) ;
#24 = AXIS2_PLACEMENT_3D ( 'NONE', #55, #6, #110 ) ;
#25 = ORIENTED_EDGE ( 'NONE', *, *, #153, .F. ) ;
#26 = ORIENTED_EDGE ( 'NONE', *, *, #107, .F. ) ;
#27 = EDGE_CURVE ( 'NONE', #123, #123, #194, .T. ) ;
#28 = CC_DESIGN_DATE_AND_TIME_ASSIGNMENT ( #185, #14, ( #117 ) ) ;
#29 = CIRCLE ( 'NONE', #215, 4.999999999999994671 ) ;
#30 = PERSON_AND_ORGANIZATION ( #138, #47 ) ;
#31 = LOCAL_TIME ( 15, 46, 23.00000000000000000, #104 ) ;
#32 = APPROVAL ( #100, 'UNSPECIFIED' ) ;
#34 = APPROVAL_ROLE ( '' ) ;
#33 = APPROVAL_DATE_TIME ( #87, #12 ) ;
#35 = CIRCLE ( 'NONE', #66, 5.000000000000000888 ) ;
#36 = FACE_OUTER_BOUND ( 'NONE', #178, .T. ) ;
#37 = FACE_OUTER_BOUND ( 'NONE', #146, .T. ) ;
#38 = CARTESIAN_POINT ( 'NONE',  ( 7.681258945454893382E-14, 3.749399456654636904E-32, 22.00000000000000000 ) ) ;
#39 = EDGE_LOOP ( 'NONE', ( #212 ) ) ;
#40 = EDGE_LOOP ( 'NONE', ( #9 ) ) ;
#41 = PLANE ( 'NONE',  #180 ) ;
#42 = EDGE_CURVE ( 'NONE', #210, #210, #211, .T. ) ;
#43 = FACE_OUTER_BOUND ( 'NONE', #150, .T. ) ;
#44 = DESIGN_CONTEXT ( 'detailed design', #128, 'design' ) ;
#45 = AXIS2_PLACEMENT_3D ( 'NONE', #38, #75, #106 ) ;
#46 = APPLICATION_PROTOCOL_DEFINITION ( 'international standard', 'config_control_design', 1994, #161 ) ;
#47 = ORGANIZATION ( 'UNSPECIFIED', 'UNSPECIFIED', '' ) ;
#48 = PERSON_AND_ORGANIZATION ( #138, #47 ) ;
#49 = LOCAL_TIME ( 15, 46, 23.00000000000000000, #219 ) ;
#50 = APPROVAL_STATUS ( 'not_yet_approved' ) ;
#51 = CIRCLE ( 'NONE', #88, 4.800000000000002487 ) ;
#52 = CARTESIAN_POINT ( 'NONE',  ( 7.681258945454893382E-14, 3.749399456654636904E-32, 22.00000000000000000 ) ) ;
#53 =( LENGTH_UNIT ( ) NAMED_UNIT ( * ) SI_UNIT ( .MILLI., .METRE. ) );
#54 = CC_DESIGN_DATE_AND_TIME_ASSIGNMENT ( #221, #205, ( #114 ) ) ;
#55 = CARTESIAN_POINT ( 'NONE',  ( 0.0000000000000000000, 0.0000000000000000000, 0.0000000000000000000 ) ) ;
#56 = PERSON_AND_ORGANIZATION_ROLE ( 'creator' ) ;
#57 = DIRECTION ( 'NONE',  ( -3.491481338843133355E-15, 1.224646799147353207E-16, -1.000000000000000000 ) ) ;
#58 = EDGE_LOOP ( 'NONE', ( #63 ) ) ;
#59 = APPROVAL_PERSON_ORGANIZATION ( #135, #12, #119 ) ;
#60 = ORIENTED_EDGE ( 'NONE', *, *, #153, .T. ) ;
#61 = EDGE_LOOP ( 'NONE', ( #163 ) ) ;
#62 = CIRCLE ( 'NONE', #183, 5.000000000000000000 ) ;
#63 = ORIENTED_EDGE ( 'NONE', *, *, #27, .F. ) ;
#64 = CC_DESIGN_PERSON_AND_ORGANIZATION_ASSIGNMENT ( #133, #203, ( #117 ) ) ;
#65 =( NAMED_UNIT ( * ) PLANE_ANGLE_UNIT ( ) SI_UNIT ( $, .RADIAN. ) );
#66 = AXIS2_PLACEMENT_3D ( 'NONE', #77, #172, #186 ) ;
#67 = ADVANCED_FACE ( 'NONE', ( #129 ), #98, .F. ) ;
#68 = DATE_AND_TIME ( #13, #126 ) ;
#69 = COORDINATED_UNIVERSAL_TIME_OFFSET ( 1, 0, .AHEAD. ) ;
#70 = CC_DESIGN_APPROVAL ( #12, ( #168 ) ) ;
#71 = APPROVAL_DATE_TIME ( #190, #32 ) ;
#72 = CARTESIAN_POINT ( 'NONE',  ( 0.0000000000000000000, 0.0000000000000000000, 0.0000000000000000000 ) ) ;
#73 = CC_DESIGN_PERSON_AND_ORGANIZATION_ASSIGNMENT ( #30, #102, ( #168 ) ) ;
#74 = CARTESIAN_POINT ( 'NONE',  ( 7.681258945454893382E-14, 4.999999999999992006, 22.00000000000000000 ) ) ;
#75 = DIRECTION ( 'NONE',  ( 3.491481338843133355E-15, -1.224646799147353207E-16, 1.000000000000000000 ) ) ;
#76 = LOCAL_TIME ( 15, 46, 23.00000000000000000, #156 ) ;
#77 = CARTESIAN_POINT ( 'NONE',  ( 2.426579530495977493E-13, -8.511295254074105418E-15, 69.50000000000000000 ) ) ;
#78 = CC_DESIGN_PERSON_AND_ORGANIZATION_ASSIGNMENT ( #218, #85, ( #86 ) ) ;
#79 = CARTESIAN_POINT ( 'NONE',  ( 4.800000000000002487, 0.0000000000000000000, -1.675911042644704642E-14 ) ) ;
#80 = CONICAL_SURFACE ( 'NONE', #199, 5.000000000000000000, 0.7853981633974430610 ) ;
#81 = ORIENTED_EDGE ( 'NONE', *, *, #11, .T. ) ;
#82 = DIRECTION ( 'NONE',  ( -3.491481338843133355E-15, 1.224646799147353207E-16, -1.000000000000000000 ) ) ;
#83 = DIRECTION ( 'NONE',  ( -4.275831445896958607E-31, -1.000000000000000000, -1.224646799147353207E-16 ) ) ;
#84 = UNCERTAINTY_MEASURE_WITH_UNIT (LENGTH_MEASURE( 1.000000000000000082E-05 ), #53, 'distance_accuracy_value', 'NONE');
#85 = PERSON_AND_ORGANIZATION_ROLE ( 'design_owner' ) ;
#86 = PRODUCT ( '46566', '46566', '', ( #200 ) ) ;
#87 = DATE_AND_TIME ( #90, #31 ) ;
#88 = AXIS2_PLACEMENT_3D ( 'NONE', #214, #165, #130 ) ;
#89 = PERSON_AND_ORGANIZATION_ROLE ( 'creator' ) ;
#90 = CALENDAR_DATE ( 2021, 5, 11 ) ;
#91 = CARTESIAN_POINT ( 'NONE',  ( 7.681258945454893382E-14, -2.694222958124176809E-15, 22.00000000000000000 ) ) ;
#92 = ADVANCED_FACE ( 'NONE', ( #197, #43 ), #80, .T. ) ;
#93 = DIRECTION ( 'NONE',  ( 3.491481338843133355E-15, -1.224646799147353207E-16, 1.000000000000000000 ) ) ;
#94 = CARTESIAN_POINT ( 'NONE',  ( 6.982962677686266711E-16, 0.0000000000000000000, 0.2000000000000000111 ) ) ;
#95 = CARTESIAN_POINT ( 'NONE',  ( 6.982962677686266711E-16, 0.0000000000000000000, 0.2000000000000000111 ) ) ;
#96 = MANIFOLD_SOLID_BREP ( 'Corps-Déplacer/Copier1[1]', #155 ) ;
#97 = EDGE_LOOP ( 'NONE', ( #112 ) ) ;
#98 = PLANE ( 'NONE',  #144 ) ;
#99 = MANIFOLD_SOLID_BREP ( 'Corps-Déplacer/Copier1[2]', #139 ) ;
#100 = APPROVAL_STATUS ( 'not_yet_approved' ) ;
#101 = ADVANCED_BREP_SHAPE_REPRESENTATION ( '46566', ( #96, #99, #4 ), #122 ) ;
#102 = PERSON_AND_ORGANIZATION_ROLE ( 'design_supplier' ) ;
#103 = SHAPE_DEFINITION_REPRESENTATION ( #206, #101 ) ;
#104 = COORDINATED_UNIVERSAL_TIME_OFFSET ( 1, 0, .AHEAD. ) ;
#105 = CARTESIAN_POINT ( 'NONE',  ( 7.681258945454893382E-14, 4.999999999999992006, 22.00000000000000000 ) ) ;
#106 = DIRECTION ( 'NONE',  ( -4.275831445896958607E-31, -1.000000000000000000, -1.224646799147353207E-16 ) ) ;
#107 = EDGE_CURVE ( 'NONE', #145, #145, #62, .T. ) ;
#108 = DIRECTION ( 'NONE',  ( 1.000000000000000000, 0.0000000000000000000, -3.491130995403324278E-15 ) ) ;
#109 = CALENDAR_DATE ( 2021, 5, 11 ) ;
#110 = DIRECTION ( 'NONE',  ( 4.275831445896959482E-31, 1.000000000000000000, 1.224646799147353207E-16 ) ) ;
#111 = ORIENTED_EDGE ( 'NONE', *, *, #42, .F. ) ;
#112 = ORIENTED_EDGE ( 'NONE', *, *, #169, .F. ) ;
#113 = DIRECTION ( 'NONE',  ( 0.0000000000000000000, 1.000000000000000000, 0.0000000000000000000 ) ) ;
#114 = PRODUCT_DEFINITION ( 'UNKNOWN', '', #168, #44 ) ;
#115 = PERSON_AND_ORGANIZATION ( #138, #47 ) ;
#116 = APPROVAL_DATE_TIME ( #68, #202 ) ;
#117 = SECURITY_CLASSIFICATION ( '', '', #154 ) ;
#119 = APPROVAL_ROLE ( '' ) ;
#118 = APPROVAL_ROLE ( '' ) ;
#120 = CARTESIAN_POINT ( 'NONE',  ( 5.000000000000000888, 0.0000000000000000000, 0.1999999999999825528 ) ) ;
#121 = CYLINDRICAL_SURFACE ( 'NONE', #164, 4.999999999999997335 ) ;
#122 =( GEOMETRIC_REPRESENTATION_CONTEXT ( 3 ) GLOBAL_UNCERTAINTY_ASSIGNED_CONTEXT ( ( #84 ) ) GLOBAL_UNIT_ASSIGNED_CONTEXT ( ( #53, #65, #201 ) ) REPRESENTATION_CONTEXT ( 'NONE', 'WORKASPACE' ) );
#123 = VERTEX_POINT ( 'NONE', #74 ) ;
#124 = DIRECTION ( 'NONE',  ( 1.000000000000000000, 0.0000000000000000000, -3.491130995403324278E-15 ) ) ;
#125 = ORIENTED_EDGE ( 'NONE', *, *, #169, .T. ) ;
#126 = LOCAL_TIME ( 15, 46, 23.00000000000000000, #69 ) ;
#127 = CARTESIAN_POINT ( 'NONE',  ( 2.444036937190193601E-13, 3.374459510989167028E-32, 70.00000000000000000 ) ) ;
#128 = APPLICATION_CONTEXT ( 'configuration controlled 3d designs of mechanical parts and assemblies' ) ;
#129 = FACE_OUTER_BOUND ( 'NONE', #39, .T. ) ;
#130 = DIRECTION ( 'NONE',  ( 1.000000000000000000, 0.0000000000000000000, -3.491481338843132961E-15 ) ) ;
#131 = ADVANCED_FACE ( 'NONE', ( #37 ), #191, .F. ) ;
#132 = DIRECTION ( 'NONE',  ( 0.0000000000000000000, 0.0000000000000000000, 1.000000000000000000 ) ) ;
#133 = PERSON_AND_ORGANIZATION ( #138, #47 ) ;
#134 = ADVANCED_FACE ( 'NONE', ( #208, #162 ), #121, .T. ) ;
#135 = PERSON_AND_ORGANIZATION ( #138, #47 ) ;
#136 = COORDINATED_UNIVERSAL_TIME_OFFSET ( 1, 0, .AHEAD. ) ;
#137 = DIRECTION ( 'NONE',  ( -3.491481338843133355E-15, 1.224646799147353207E-16, -1.000000000000000000 ) ) ;
#138 = PERSON ( 'UNSPECIFIED', 'UNSPECIFIED', 'UNSPECIFIED', ('UNSPECIFIED'), ('UNSPECIFIED'), ('UNSPECIFIED') ) ;
#139 = CLOSED_SHELL ( 'NONE', ( #184, #189, #92, #67 ) ) ;
#140 = VERTEX_POINT ( 'NONE', #171 ) ;
#141 = VERTEX_POINT ( 'NONE', #105 ) ;
#142 = APPROVAL_PERSON_ORGANIZATION ( #115, #32, #34 ) ;
#143 = DIRECTION ( 'NONE',  ( 0.0000000000000000000, 1.000000000000000000, 0.0000000000000000000 ) ) ;
#144 = AXIS2_PLACEMENT_3D ( 'NONE', #167, #10, #83 ) ;
#145 = VERTEX_POINT ( 'NONE', #120 ) ;
#146 = EDGE_LOOP ( 'NONE', ( #151 ) ) ;
#147 = CARTESIAN_POINT ( 'NONE',  ( 7.681258945454893382E-14, -2.694222958124176809E-15, 22.00000000000000000 ) ) ;
#148 = AXIS2_PLACEMENT_3D ( 'NONE', #188, #160, #143 ) ;
#149 = CC_DESIGN_SECURITY_CLASSIFICATION ( #117, ( #168 ) ) ;
#150 = EDGE_LOOP ( 'NONE', ( #26 ) ) ;
#151 = ORIENTED_EDGE ( 'NONE', *, *, #27, .T. ) ;
#152 = APPLICATION_PROTOCOL_DEFINITION ( 'international standard', 'config_control_design', 1994, #128 ) ;
#153 = EDGE_CURVE ( 'NONE', #141, #141, #29, .T. ) ;
#154 = SECURITY_CLASSIFICATION_LEVEL ( 'unclassified' ) ;
#155 = CLOSED_SHELL ( 'NONE', ( #131, #134, #209, #2 ) ) ;
#156 = COORDINATED_UNIVERSAL_TIME_OFFSET ( 1, 0, .AHEAD. ) ;
#157 = PLANE ( 'NONE',  #217 ) ;
#158 = CC_DESIGN_APPROVAL ( #202, ( #117 ) ) ;
#159 = DIRECTION ( 'NONE',  ( 3.491481338843133355E-15, -0.0000000000000000000, 1.000000000000000000 ) ) ;
#160 = DIRECTION ( 'NONE',  ( -3.491481338843133355E-15, 1.224646799147353207E-16, -1.000000000000000000 ) ) ;
#161 = APPLICATION_CONTEXT ( 'configuration controlled 3d designs of mechanical parts and assemblies' ) ;
#162 = FACE_OUTER_BOUND ( 'NONE', #23, .T. ) ;
#163 = ORIENTED_EDGE ( 'NONE', *, *, #42, .T. ) ;
#164 = AXIS2_PLACEMENT_3D ( 'NONE', #72, #57, #17 ) ;
#165 = DIRECTION ( 'NONE',  ( 3.491481338843133355E-15, -0.0000000000000000000, 1.000000000000000000 ) ) ;
#166 = DIRECTION ( 'NONE',  ( 4.275831445896958607E-31, 1.000000000000000000, 1.224646799147353207E-16 ) ) ;
#167 = CARTESIAN_POINT ( 'NONE',  ( -8.551702076470480934E-31, 2.999533309458101739E-32, -2.449304821232125005E-16 ) ) ;
#168 = PRODUCT_DEFINITION_FORMATION_WITH_SPECIFIED_SOURCE ( 'ANY', '', #86, .NOT_KNOWN. ) ;
#169 = EDGE_CURVE ( 'NONE', #140, #140, #35, .T. ) ;
#170 = PERSON_AND_ORGANIZATION ( #138, #47 ) ;
#171 = CARTESIAN_POINT ( 'NONE',  ( 2.426579530495977493E-13, 4.999999999999992006, 69.50000000000000000 ) ) ;
#172 = DIRECTION ( 'NONE',  ( -3.491481338843133355E-15, 1.224646799147353207E-16, -1.000000000000000000 ) ) ;
#173 = DIRECTION ( 'NONE',  ( 0.0000000000000000000, 1.000000000000000000, 0.0000000000000000000 ) ) ;
#174 = CARTESIAN_POINT ( 'NONE',  ( 2.444036937190193601E-13, 4.499999999999992006, 70.00000000000000000 ) ) ;
#175 = CONICAL_SURFACE ( 'NONE', #148, 4.500000000000000888, 0.7853981633974482790 ) ;
#176 = EDGE_LOOP ( 'NONE', ( #60 ) ) ;
#177 = AXIS2_PLACEMENT_3D ( 'NONE', #147, #8, #113 ) ;
#178 = EDGE_LOOP ( 'NONE', ( #25 ) ) ;
#179 = DIRECTION ( 'NONE',  ( 0.0000000000000000000, 1.000000000000000000, 0.0000000000000000000 ) ) ;
#180 = AXIS2_PLACEMENT_3D ( 'NONE', #127, #192, #166 ) ;
#181 = DIRECTION ( 'NONE',  ( 1.000000000000000000, 0.0000000000000000000, 0.0000000000000000000 ) ) ;
#182 = CARTESIAN_POINT ( 'NONE',  ( 0.0000000000000000000, 0.0000000000000000000, 0.0000000000000000000 ) ) ;
#183 = AXIS2_PLACEMENT_3D ( 'NONE', #94, #159, #108 ) ;
#184 = ADVANCED_FACE ( 'NONE', ( #20, #18 ), #223, .T. ) ;
#185 = DATE_AND_TIME ( #220, #49 ) ;
#186 = DIRECTION ( 'NONE',  ( 0.0000000000000000000, 1.000000000000000000, 0.0000000000000000000 ) ) ;
#187 = LOCAL_TIME ( 15, 46, 23.00000000000000000, #136 ) ;
#188 = CARTESIAN_POINT ( 'NONE',  ( 2.444036937190193601E-13, -8.572527594031472993E-15, 70.00000000000000000 ) ) ;
#189 = ADVANCED_FACE ( 'NONE', ( #36 ), #157, .T. ) ;
#190 = DATE_AND_TIME ( #109, #76 ) ;
#191 = PLANE ( 'NONE',  #45 ) ;
#192 = DIRECTION ( 'NONE',  ( -3.491481338843133355E-15, 1.224646799147353207E-16, -1.000000000000000000 ) ) ;
#193 = CARTESIAN_POINT ( 'NONE',  ( 2.444036937190193601E-13, -8.572527594031472993E-15, 70.00000000000000000 ) ) ;
#194 = CIRCLE ( 'NONE', #177, 4.999999999999994671 ) ;
#195 = FACE_OUTER_BOUND ( 'NONE', #213, .T. ) ;
#196 = PRODUCT_RELATED_PRODUCT_CATEGORY ( 'detail', '', ( #86 ) ) ;
#197 = FACE_BOUND ( 'NONE', #7, .T. ) ;
#198 = CC_DESIGN_APPROVAL ( #32, ( #114 ) ) ;
#199 = AXIS2_PLACEMENT_3D ( 'NONE', #95, #1, #124 ) ;
#200 = MECHANICAL_CONTEXT ( 'NONE', #161, 'mechanical' ) ;
#201 =( NAMED_UNIT ( * ) SI_UNIT ( $, .STERADIAN. ) SOLID_ANGLE_UNIT ( ) );
#202 = APPROVAL ( #204, 'UNSPECIFIED' ) ;
#203 = PERSON_AND_ORGANIZATION_ROLE ( 'classification_officer' ) ;
#205 = DATE_TIME_ROLE ( 'creation_date' ) ;
#204 = APPROVAL_STATUS ( 'not_yet_approved' ) ;
#206 = PRODUCT_DEFINITION_SHAPE ( 'NONE', 'NONE',  #114 ) ;
#207 = DIRECTION ( 'NONE',  ( -4.275831445896958607E-31, -1.000000000000000000, -1.224646799147353207E-16 ) ) ;
#208 = FACE_OUTER_BOUND ( 'NONE', #58, .T. ) ;
#209 = ADVANCED_FACE ( 'NONE', ( #5, #22 ), #175, .T. ) ;
#210 = VERTEX_POINT ( 'NONE', #174 ) ;
#211 = CIRCLE ( 'NONE', #16, 4.500000000000000888 ) ;
#212 = ORIENTED_EDGE ( 'NONE', *, *, #11, .F. ) ;
#213 = EDGE_LOOP ( 'NONE', ( #111 ) ) ;
#214 = CARTESIAN_POINT ( 'NONE',  ( 0.0000000000000000000, 0.0000000000000000000, 0.0000000000000000000 ) ) ;
#215 = AXIS2_PLACEMENT_3D ( 'NONE', #91, #137, #173 ) ;
#216 = CC_DESIGN_PERSON_AND_ORGANIZATION_ASSIGNMENT ( #21, #56, ( #114 ) ) ;
#217 = AXIS2_PLACEMENT_3D ( 'NONE', #52, #93, #207 ) ;
#218 = PERSON_AND_ORGANIZATION ( #138, #47 ) ;
#219 = COORDINATED_UNIVERSAL_TIME_OFFSET ( 1, 0, .AHEAD. ) ;
#221 = DATE_AND_TIME ( #15, #187 ) ;
#220 = CALENDAR_DATE ( 2021, 5, 11 ) ;
#222 = APPROVAL_PERSON_ORGANIZATION ( #170, #202, #118 ) ;
#223 = CYLINDRICAL_SURFACE ( 'NONE', #24, 4.999999999999993783 ) ;
ENDSEC;
END-ISO-10303-21;
