ISO-10303-21;
HEADER;
FILE_DESCRIPTION (( 'STEP AP203' ),
    '1' );
FILE_NAME ('46563.step',
    '2021-11-05T14:46:22',
    ( '' ),
    ( '' ),
    'SwSTEP 2.0',
    'SolidWorks 2019',
    '' );
FILE_SCHEMA (( 'CONFIG_CONTROL_DESIGN' ));
ENDSEC;

DATA;
#1 = CALENDAR_DATE ( 2021, 5, 11 ) ;
#2 = ADVANCED_FACE ( 'NONE', ( #150 ), #220, .F. ) ;
#3 =( NAMED_UNIT ( * ) SI_UNIT ( $, .STERADIAN. ) SOLID_ANGLE_UNIT ( ) );
#4 = CIRCLE ( 'NONE', #137, 2.350000000000001865 ) ;
#5 = COORDINATED_UNIVERSAL_TIME_OFFSET ( 1, 0, .AHEAD. ) ;
#6 = DIRECTION ( 'NONE',  ( 1.000000000000000000, 0.0000000000000000000, 0.0000000000000000000 ) ) ;
#7 = DIRECTION ( 'NONE',  ( 4.275831445896959482E-31, 1.000000000000000000, 1.224646799147353454E-16 ) ) ;
#8 = PERSON_AND_ORGANIZATION ( #56, #177 ) ;
#9 = CARTESIAN_POINT ( 'NONE',  ( 0.0000000000000000000, 0.0000000000000000000, 0.0000000000000000000 ) ) ;
#10 = PERSON_AND_ORGANIZATION_ROLE ( 'classification_officer' ) ;
#11 = ADVANCED_BREP_SHAPE_REPRESENTATION ( '46563', ( #169, #165, #191 ), #160 ) ;
#12 = CARTESIAN_POINT ( 'NONE',  ( 4.888073874380386697E-14, 1.874699728327316262E-32, 14.00000000000000000 ) ) ;
#13 = SHAPE_DEFINITION_REPRESENTATION ( #158, #11 ) ;
#14 = EDGE_LOOP ( 'NONE', ( #219 ) ) ;
#15 = ORIENTED_EDGE ( 'NONE', *, *, #91, .T. ) ;
#16 = CARTESIAN_POINT ( 'NONE',  ( 1.728283262727351074E-13, -6.062001655779398511E-15, 49.50000000000000000 ) ) ;
#17 = DIRECTION ( 'NONE',  ( 1.000000000000000000, 0.0000000000000000000, -3.491481338843133355E-15 ) ) ;
#18 = APPLICATION_CONTEXT ( 'configuration controlled 3d designs of mechanical parts and assemblies' ) ;
#19 = APPLICATION_PROTOCOL_DEFINITION ( 'international standard', 'config_control_design', 1994, #18 ) ;
#20 = APPROVAL_ROLE ( '' ) ;
#21 = DATE_AND_TIME ( #1, #106 ) ;
#22 = APPROVAL_PERSON_ORGANIZATION ( #8, #166, #81 ) ;
#23 = EDGE_CURVE ( 'NONE', #181, #181, #38, .T. ) ;
#24 = CARTESIAN_POINT ( 'NONE',  ( 2.500000000000000444, 0.0000000000000000000, 0.1499999999999912514 ) ) ;
#25 = PERSON_AND_ORGANIZATION_ROLE ( 'creator' ) ;
#26 = AXIS2_PLACEMENT_3D ( 'NONE', #12, #188, #152 ) ;
#27 = EDGE_CURVE ( 'NONE', #40, #40, #4, .T. ) ;
#28 = CARTESIAN_POINT ( 'NONE',  ( 1.745740669421566678E-13, -6.123233995736766085E-15, 50.00000000000000000 ) ) ;
#29 = PLANE ( 'NONE',  #45 ) ;
#30 = PERSON_AND_ORGANIZATION ( #56, #177 ) ;
#31 = CC_DESIGN_PERSON_AND_ORGANIZATION_ASSIGNMENT ( #62, #25, ( #128 ) ) ;
#32 = EDGE_LOOP ( 'NONE', ( #85 ) ) ;
#33 = AXIS2_PLACEMENT_3D ( 'NONE', #35, #162, #83 ) ;
#34 = EDGE_LOOP ( 'NONE', ( #51 ) ) ;
#35 = CARTESIAN_POINT ( 'NONE',  ( 5.237222008264699047E-16, 0.0000000000000000000, 0.1499999999999999944 ) ) ;
#36 = VERTEX_POINT ( 'NONE', #154 ) ;
#37 = CYLINDRICAL_SURFACE ( 'NONE', #131, 2.499999999999994671 ) ;
#38 = CIRCLE ( 'NONE', #101, 2.499999999999995559 ) ;
#39 = CC_DESIGN_PERSON_AND_ORGANIZATION_ASSIGNMENT ( #210, #157, ( #116 ) ) ;
#40 = VERTEX_POINT ( 'NONE', #134 ) ;
#41 = ADVANCED_FACE ( 'NONE', ( #136 ), #29, .T. ) ;
#42 = CIRCLE ( 'NONE', #33, 2.500000000000000000 ) ;
#43 = APPROVAL_DATE_TIME ( #21, #221 ) ;
#44 = ORIENTED_EDGE ( 'NONE', *, *, #112, .F. ) ;
#45 = AXIS2_PLACEMENT_3D ( 'NONE', #98, #127, #88 ) ;
#46 = APPROVAL_STATUS ( 'not_yet_approved' ) ;
#47 = DIRECTION ( 'NONE',  ( -3.491481338843133355E-15, 1.224646799147353207E-16, -1.000000000000000000 ) ) ;
#48 = DIRECTION ( 'NONE',  ( 4.275831445896958607E-31, 1.000000000000000000, 1.224646799147353207E-16 ) ) ;
#49 = CALENDAR_DATE ( 2021, 5, 11 ) ;
#50 = EDGE_LOOP ( 'NONE', ( #44 ) ) ;
#51 = ORIENTED_EDGE ( 'NONE', *, *, #91, .F. ) ;
#52 = CIRCLE ( 'NONE', #202, 2.499999999999995559 ) ;
#53 = DIRECTION ( 'NONE',  ( -3.491481338843133355E-15, 1.224646799147353207E-16, -1.000000000000000000 ) ) ;
#54 = DIRECTION ( 'NONE',  ( -3.491481338843133355E-15, 1.224646799147353207E-16, -1.000000000000000000 ) ) ;
#55 = EDGE_CURVE ( 'NONE', #205, #205, #218, .T. ) ;
#56 = PERSON ( 'UNSPECIFIED', 'UNSPECIFIED', 'UNSPECIFIED', ('UNSPECIFIED'), ('UNSPECIFIED'), ('UNSPECIFIED') ) ;
#57 = FACE_OUTER_BOUND ( 'NONE', #14, .T. ) ;
#58 = AXIS2_PLACEMENT_3D ( 'NONE', #28, #53, #223 ) ;
#59 = ORIENTED_EDGE ( 'NONE', *, *, #27, .F. ) ;
#60 = DATE_TIME_ROLE ( 'creation_date' ) ;
#61 = DATE_AND_TIME ( #140, #74 ) ;
#62 = PERSON_AND_ORGANIZATION ( #56, #177 ) ;
#63 = PERSON_AND_ORGANIZATION ( #56, #177 ) ;
#64 = CARTESIAN_POINT ( 'NONE',  ( 1.745740669421566678E-13, -6.123233995736766085E-15, 50.00000000000000000 ) ) ;
#65 = DIRECTION ( 'NONE',  ( 3.491481338843133355E-15, -1.224646799147353207E-16, 1.000000000000000000 ) ) ;
#66 = DATE_TIME_ROLE ( 'classification_date' ) ;
#67 = CONICAL_SURFACE ( 'NONE', #89, 2.000000000000000000, 0.7853981633974479459 ) ;
#68 = CARTESIAN_POINT ( 'NONE',  ( 1.745740669421566678E-13, 1.499759782661848302E-32, 50.00000000000000000 ) ) ;
#69 = DIRECTION ( 'NONE',  ( -3.491481338843133355E-15, 1.224646799147353207E-16, -1.000000000000000000 ) ) ;
#70 = ADVANCED_FACE ( 'NONE', ( #204, #190 ), #79, .T. ) ;
#71 = CARTESIAN_POINT ( 'NONE',  ( 5.237222008264699047E-16, 0.0000000000000000000, 0.1499999999999999944 ) ) ;
#72 = DIRECTION ( 'NONE',  ( 0.0000000000000000000, 1.000000000000000000, 0.0000000000000000000 ) ) ;
#73 = ADVANCED_FACE ( 'NONE', ( #186 ), #163, .F. ) ;
#74 = LOCAL_TIME ( 15, 46, 22.00000000000000000, #5 ) ;
#75 = APPROVAL_STATUS ( 'not_yet_approved' ) ;
#76 = CARTESIAN_POINT ( 'NONE',  ( 0.0000000000000000000, 0.0000000000000000000, 0.0000000000000000000 ) ) ;
#77 = PERSON_AND_ORGANIZATION_ROLE ( 'design_owner' ) ;
#78 = CARTESIAN_POINT ( 'NONE',  ( 4.888073874380386697E-14, 2.499999999999993783, 14.00000000000000000 ) ) ;
#79 = CONICAL_SURFACE ( 'NONE', #148, 2.500000000000000000, 0.7853981633974423948 ) ;
#80 = FACE_OUTER_BOUND ( 'NONE', #130, .T. ) ;
#81 = APPROVAL_ROLE ( '' ) ;
#82 = DESIGN_CONTEXT ( 'detailed design', #213, 'design' ) ;
#83 = DIRECTION ( 'NONE',  ( 1.000000000000000000, 0.0000000000000000000, -3.491130995403324278E-15 ) ) ;
#84 = LOCAL_TIME ( 15, 46, 22.00000000000000000, #144 ) ;
#85 = ORIENTED_EDGE ( 'NONE', *, *, #23, .F. ) ;
#86 = CLOSED_SHELL ( 'NONE', ( #94, #151, #187, #2 ) ) ;
#87 = CYLINDRICAL_SURFACE ( 'NONE', #211, 2.499999999999997780 ) ;
#88 = DIRECTION ( 'NONE',  ( -4.275831445896958607E-31, -1.000000000000000000, -1.224646799147353207E-16 ) ) ;
#89 = AXIS2_PLACEMENT_3D ( 'NONE', #64, #54, #197 ) ;
#90 = COORDINATED_UNIVERSAL_TIME_OFFSET ( 1, 0, .AHEAD. ) ;
#91 = EDGE_CURVE ( 'NONE', #36, #36, #156, .T. ) ;
#92 = ORIENTED_EDGE ( 'NONE', *, *, #27, .T. ) ;
#93 = SECURITY_CLASSIFICATION ( '', '', #184 ) ;
#94 = ADVANCED_FACE ( 'NONE', ( #57 ), #135, .F. ) ;
#95 = CARTESIAN_POINT ( 'NONE',  ( 4.888073874380386697E-14, -1.714505518806294638E-15, 14.00000000000000000 ) ) ;
#96 = CALENDAR_DATE ( 2021, 5, 11 ) ;
#97 = DIRECTION ( 'NONE',  ( 0.0000000000000000000, 1.000000000000000000, 0.0000000000000000000 ) ) ;
#98 = CARTESIAN_POINT ( 'NONE',  ( 4.888073874380386697E-14, 1.874699728327316262E-32, 14.00000000000000000 ) ) ;
#99 = PERSON_AND_ORGANIZATION_ROLE ( 'design_supplier' ) ;
#100 = EDGE_LOOP ( 'NONE', ( #15 ) ) ;
#101 = AXIS2_PLACEMENT_3D ( 'NONE', #123, #183, #72 ) ;
#102 = ORIENTED_EDGE ( 'NONE', *, *, #55, .T. ) ;
#103 = DIRECTION ( 'NONE',  ( -3.491481338843133355E-15, 1.224646799147353207E-16, -1.000000000000000000 ) ) ;
#104 = CC_DESIGN_PERSON_AND_ORGANIZATION_ASSIGNMENT ( #180, #10, ( #93 ) ) ;
#105 = DIRECTION ( 'NONE',  ( -4.275831445896958607E-31, -1.000000000000000000, -1.224646799147353207E-16 ) ) ;
#106 = LOCAL_TIME ( 15, 46, 22.00000000000000000, #90 ) ;
#107 = FACE_OUTER_BOUND ( 'NONE', #109, .T. ) ;
#108 = PERSON_AND_ORGANIZATION ( #56, #177 ) ;
#109 = EDGE_LOOP ( 'NONE', ( #201 ) ) ;
#110 = VERTEX_POINT ( 'NONE', #78 ) ;
#111 = DIRECTION ( 'NONE',  ( 0.0000000000000000000, 0.0000000000000000000, 1.000000000000000000 ) ) ;
#112 = EDGE_CURVE ( 'NONE', #110, #110, #52, .T. ) ;
#113 = CALENDAR_DATE ( 2021, 5, 11 ) ;
#114 = DATE_AND_TIME ( #96, #84 ) ;
#115 = CC_DESIGN_SECURITY_CLASSIFICATION ( #93, ( #128 ) ) ;
#116 = PRODUCT_DEFINITION ( 'UNKNOWN', '', #128, #82 ) ;
#117 = CARTESIAN_POINT ( 'NONE',  ( 4.888073874380386697E-14, 2.499999999999993783, 14.00000000000000000 ) ) ;
#118 = DATE_AND_TIME ( #49, #122 ) ;
#119 = EDGE_LOOP ( 'NONE', ( #155 ) ) ;
#120 = DIRECTION ( 'NONE',  ( 1.000000000000000000, 0.0000000000000000000, -3.491130995403324278E-15 ) ) ;
#121 = CARTESIAN_POINT ( 'NONE',  ( 1.728283262727351074E-13, 2.499999999999993783, 49.50000000000000000 ) ) ;
#122 = LOCAL_TIME ( 15, 46, 22.00000000000000000, #200 ) ;
#123 = CARTESIAN_POINT ( 'NONE',  ( 4.888073874380386697E-14, -1.714505518806294638E-15, 14.00000000000000000 ) ) ;
#124 = CC_DESIGN_APPROVAL ( #221, ( #116 ) ) ;
#125 = MECHANICAL_CONTEXT ( 'NONE', #18, 'mechanical' ) ;
#126 = FACE_OUTER_BOUND ( 'NONE', #176, .T. ) ;
#127 = DIRECTION ( 'NONE',  ( 3.491481338843133355E-15, -1.224646799147353207E-16, 1.000000000000000000 ) ) ;
#128 = PRODUCT_DEFINITION_FORMATION_WITH_SPECIFIED_SOURCE ( 'ANY', '', #209, .NOT_KNOWN. ) ;
#129 = ORIENTED_EDGE ( 'NONE', *, *, #112, .T. ) ;
#130 = EDGE_LOOP ( 'NONE', ( #208 ) ) ;
#131 = AXIS2_PLACEMENT_3D ( 'NONE', #199, #47, #48 ) ;
#132 = AXIS2_PLACEMENT_3D ( 'NONE', #16, #69, #133 ) ;
#133 = DIRECTION ( 'NONE',  ( 0.0000000000000000000, 1.000000000000000000, 0.0000000000000000000 ) ) ;
#134 = CARTESIAN_POINT ( 'NONE',  ( 2.350000000000001865, 0.0000000000000000000, -8.204981146281369696E-15 ) ) ;
#135 = PLANE ( 'NONE',  #26 ) ;
#136 = FACE_OUTER_BOUND ( 'NONE', #50, .T. ) ;
#137 = AXIS2_PLACEMENT_3D ( 'NONE', #9, #147, #17 ) ;
#138 = LOCAL_TIME ( 15, 46, 22.00000000000000000, #194 ) ;
#139 = CC_DESIGN_APPROVAL ( #166, ( #93 ) ) ;
#140 = CALENDAR_DATE ( 2021, 5, 11 ) ;
#141 = APPROVAL_DATE_TIME ( #61, #203 ) ;
#142 = AXIS2_PLACEMENT_3D ( 'NONE', #68, #103, #173 ) ;
#143 = DIRECTION ( 'NONE',  ( -3.491481338843133355E-15, 1.224646799147353207E-16, -1.000000000000000000 ) ) ;
#144 = COORDINATED_UNIVERSAL_TIME_OFFSET ( 1, 0, .AHEAD. ) ;
#145 = EDGE_CURVE ( 'NONE', #178, #178, #42, .T. ) ;
#146 = CARTESIAN_POINT ( 'NONE',  ( 0.0000000000000000000, 0.0000000000000000000, 0.0000000000000000000 ) ) ;
#147 = DIRECTION ( 'NONE',  ( 3.491481338843133355E-15, -0.0000000000000000000, 1.000000000000000000 ) ) ;
#148 = AXIS2_PLACEMENT_3D ( 'NONE', #71, #207, #120 ) ;
#149 = CC_DESIGN_DATE_AND_TIME_ASSIGNMENT ( #175, #60, ( #116 ) ) ;
#150 = FACE_OUTER_BOUND ( 'NONE', #34, .T. ) ;
#151 = ADVANCED_FACE ( 'NONE', ( #170, #126 ), #87, .T. ) ;
#152 = DIRECTION ( 'NONE',  ( -4.275831445896958607E-31, -1.000000000000000000, -1.224646799147353207E-16 ) ) ;
#153 = AXIS2_PLACEMENT_3D ( 'NONE', #206, #65, #105 ) ;
#154 = CARTESIAN_POINT ( 'NONE',  ( 1.745740669421566678E-13, 1.999999999999994005, 50.00000000000000000 ) ) ;
#155 = ORIENTED_EDGE ( 'NONE', *, *, #145, .F. ) ;
#156 = CIRCLE ( 'NONE', #58, 2.000000000000000000 ) ;
#157 = PERSON_AND_ORGANIZATION_ROLE ( 'creator' ) ;
#158 = PRODUCT_DEFINITION_SHAPE ( 'NONE', 'NONE',  #116 ) ;
#159 = PERSON_AND_ORGANIZATION ( #56, #177 ) ;
#160 =( GEOMETRIC_REPRESENTATION_CONTEXT ( 3 ) GLOBAL_UNCERTAINTY_ASSIGNED_CONTEXT ( ( #171 ) ) GLOBAL_UNIT_ASSIGNED_CONTEXT ( ( #214, #193, #3 ) ) REPRESENTATION_CONTEXT ( 'NONE', 'WORKASPACE' ) );
#161 = DIRECTION ( 'NONE',  ( -3.491481338843133355E-15, 1.224646799147353207E-16, -1.000000000000000000 ) ) ;
#162 = DIRECTION ( 'NONE',  ( 3.491481338843133355E-15, -0.0000000000000000000, 1.000000000000000000 ) ) ;
#163 = PLANE ( 'NONE',  #153 ) ;
#164 = APPROVAL_DATE_TIME ( #114, #166 ) ;
#165 = MANIFOLD_SOLID_BREP ( 'Corps-Déplacer/Copier1[2]', #198 ) ;
#166 = APPROVAL ( #182, 'UNSPECIFIED' ) ;
#167 = EDGE_LOOP ( 'NONE', ( #129 ) ) ;
#168 = EDGE_LOOP ( 'NONE', ( #59 ) ) ;
#169 = MANIFOLD_SOLID_BREP ( 'Corps-Déplacer/Copier1[1]', #86 ) ;
#170 = FACE_OUTER_BOUND ( 'NONE', #32, .T. ) ;
#171 = UNCERTAINTY_MEASURE_WITH_UNIT (LENGTH_MEASURE( 1.000000000000000082E-05 ), #214, 'distance_accuracy_value', 'NONE');
#172 = APPROVAL_PERSON_ORGANIZATION ( #108, #203, #20 ) ;
#173 = DIRECTION ( 'NONE',  ( 4.275831445896958607E-31, 1.000000000000000000, 1.224646799147353207E-16 ) ) ;
#174 = CC_DESIGN_DATE_AND_TIME_ASSIGNMENT ( #118, #66, ( #93 ) ) ;
#175 = DATE_AND_TIME ( #113, #138 ) ;
#176 = EDGE_LOOP ( 'NONE', ( #102 ) ) ;
#177 = ORGANIZATION ( 'UNSPECIFIED', 'UNSPECIFIED', '' ) ;
#178 = VERTEX_POINT ( 'NONE', #24 ) ;
#179 = CC_DESIGN_PERSON_AND_ORGANIZATION_ASSIGNMENT ( #159, #77, ( #209 ) ) ;
#180 = PERSON_AND_ORGANIZATION ( #56, #177 ) ;
#181 = VERTEX_POINT ( 'NONE', #117 ) ;
#182 = APPROVAL_STATUS ( 'not_yet_approved' ) ;
#183 = DIRECTION ( 'NONE',  ( -3.491481338843133355E-15, 1.224646799147353207E-16, -1.000000000000000000 ) ) ;
#184 = SECURITY_CLASSIFICATION_LEVEL ( 'unclassified' ) ;
#185 = EDGE_LOOP ( 'NONE', ( #92 ) ) ;
#186 = FACE_OUTER_BOUND ( 'NONE', #168, .T. ) ;
#187 = ADVANCED_FACE ( 'NONE', ( #80, #215 ), #67, .T. ) ;
#188 = DIRECTION ( 'NONE',  ( 3.491481338843133355E-15, -1.224646799147353207E-16, 1.000000000000000000 ) ) ;
#189 = CC_DESIGN_APPROVAL ( #203, ( #128 ) ) ;
#190 = FACE_OUTER_BOUND ( 'NONE', #119, .T. ) ;
#191 = AXIS2_PLACEMENT_3D ( 'NONE', #76, #111, #6 ) ;
#192 = APPLICATION_PROTOCOL_DEFINITION ( 'international standard', 'config_control_design', 1994, #213 ) ;
#193 =( NAMED_UNIT ( * ) PLANE_ANGLE_UNIT ( ) SI_UNIT ( $, .RADIAN. ) );
#194 = COORDINATED_UNIVERSAL_TIME_OFFSET ( 1, 0, .AHEAD. ) ;
#195 = CC_DESIGN_PERSON_AND_ORGANIZATION_ASSIGNMENT ( #30, #99, ( #128 ) ) ;
#196 = APPROVAL_ROLE ( '' ) ;
#197 = DIRECTION ( 'NONE',  ( 0.0000000000000000000, 1.000000000000000000, 0.0000000000000000000 ) ) ;
#198 = CLOSED_SHELL ( 'NONE', ( #212, #41, #70, #73 ) ) ;
#199 = CARTESIAN_POINT ( 'NONE',  ( 0.0000000000000000000, 0.0000000000000000000, 0.0000000000000000000 ) ) ;
#200 = COORDINATED_UNIVERSAL_TIME_OFFSET ( 1, 0, .AHEAD. ) ;
#201 = ORIENTED_EDGE ( 'NONE', *, *, #145, .T. ) ;
#202 = AXIS2_PLACEMENT_3D ( 'NONE', #95, #161, #97 ) ;
#203 = APPROVAL ( #46, 'UNSPECIFIED' ) ;
#204 = FACE_BOUND ( 'NONE', #185, .T. ) ;
#205 = VERTEX_POINT ( 'NONE', #121 ) ;
#206 = CARTESIAN_POINT ( 'NONE',  ( -4.275851038235236088E-31, 1.499766654729049501E-32, -1.224652410616061270E-16 ) ) ;
#207 = DIRECTION ( 'NONE',  ( 3.491481338843133355E-15, -0.0000000000000000000, 1.000000000000000000 ) ) ;
#208 = ORIENTED_EDGE ( 'NONE', *, *, #55, .F. ) ;
#209 = PRODUCT ( '46563', '46563', '', ( #125 ) ) ;
#210 = PERSON_AND_ORGANIZATION ( #56, #177 ) ;
#211 = AXIS2_PLACEMENT_3D ( 'NONE', #146, #143, #7 ) ;
#212 = ADVANCED_FACE ( 'NONE', ( #216, #107 ), #37, .T. ) ;
#213 = APPLICATION_CONTEXT ( 'configuration controlled 3d designs of mechanical parts and assemblies' ) ;
#214 =( LENGTH_UNIT ( ) NAMED_UNIT ( * ) SI_UNIT ( .MILLI., .METRE. ) );
#215 = FACE_BOUND ( 'NONE', #100, .T. ) ;
#216 = FACE_OUTER_BOUND ( 'NONE', #167, .T. ) ;
#217 = PRODUCT_RELATED_PRODUCT_CATEGORY ( 'detail', '', ( #209 ) ) ;
#218 = CIRCLE ( 'NONE', #132, 2.500000000000000000 ) ;
#219 = ORIENTED_EDGE ( 'NONE', *, *, #23, .T. ) ;
#220 = PLANE ( 'NONE',  #142 ) ;
#221 = APPROVAL ( #75, 'UNSPECIFIED' ) ;
#222 = APPROVAL_PERSON_ORGANIZATION ( #63, #221, #196 ) ;
#223 = DIRECTION ( 'NONE',  ( 0.0000000000000000000, 1.000000000000000000, 0.0000000000000000000 ) ) ;
ENDSEC;
END-ISO-10303-21;
