ISO-10303-21;
HEADER;
FILE_DESCRIPTION (( 'STEP AP203' ),
    '1' );
FILE_NAME ('46562.step',
    '2021-11-05T14:46:21',
    ( '' ),
    ( '' ),
    'SwSTEP 2.0',
    'SolidWorks 2019',
    '' );
FILE_SCHEMA (( 'CONFIG_CONTROL_DESIGN' ));
ENDSEC;

DATA;
#1 =( GEOMETRIC_REPRESENTATION_CONTEXT ( 3 ) GLOBAL_UNCERTAINTY_ASSIGNED_CONTEXT ( ( #8 ) ) GLOBAL_UNIT_ASSIGNED_CONTEXT ( ( #190, #77, #116 ) ) REPRESENTATION_CONTEXT ( 'NONE', 'WORKASPACE' ) );
#2 = PERSON_AND_ORGANIZATION ( #203, #213 ) ;
#3 = FACE_OUTER_BOUND ( 'NONE', #110, .T. ) ;
#4 = ADVANCED_FACE ( 'NONE', ( #12, #42 ), #122, .T. ) ;
#5 = DIRECTION ( 'NONE',  ( 3.491481338843133355E-15, -1.224646799147353207E-16, 1.000000000000000000 ) ) ;
#6 = LOCAL_TIME ( 15, 46, 21.00000000000000000, #185 ) ;
#7 = DIRECTION ( 'NONE',  ( -4.275831445896958607E-31, -1.000000000000000000, -1.224646799147353207E-16 ) ) ;
#8 = UNCERTAINTY_MEASURE_WITH_UNIT (LENGTH_MEASURE( 1.000000000000000082E-05 ), #190, 'distance_accuracy_value', 'NONE');
#9 = CARTESIAN_POINT ( 'NONE',  ( 2.000000000000000444, 0.0000000000000000000, 0.1499999999999930000 ) ) ;
#10 = ORIENTED_EDGE ( 'NONE', *, *, #148, .F. ) ;
#11 = ORIENTED_EDGE ( 'NONE', *, *, #164, .F. ) ;
#12 = FACE_OUTER_BOUND ( 'NONE', #107, .T. ) ;
#13 = CARTESIAN_POINT ( 'NONE',  ( 0.0000000000000000000, 0.0000000000000000000, 0.0000000000000000000 ) ) ;
#14 = DIRECTION ( 'NONE',  ( 0.0000000000000000000, 1.000000000000000000, 0.0000000000000000000 ) ) ;
#15 = EDGE_LOOP ( 'NONE', ( #55 ) ) ;
#16 = APPROVAL_DATE_TIME ( #200, #139 ) ;
#17 = AXIS2_PLACEMENT_3D ( 'NONE', #37, #104, #173 ) ;
#18 = PERSON_AND_ORGANIZATION ( #203, #213 ) ;
#19 = MANIFOLD_SOLID_BREP ( 'Corps-Déplacer/Copier1[1]', #76 ) ;
#20 = PERSON_AND_ORGANIZATION_ROLE ( 'design_owner' ) ;
#21 = APPROVAL_PERSON_ORGANIZATION ( #78, #30, #221 ) ;
#22 = DIRECTION ( 'NONE',  ( -3.491481338843133355E-15, 1.224646799147353207E-16, -1.000000000000000000 ) ) ;
#23 = FACE_BOUND ( 'NONE', #163, .T. ) ;
#24 = DIRECTION ( 'NONE',  ( 3.491481338843133355E-15, -0.0000000000000000000, 1.000000000000000000 ) ) ;
#25 = CARTESIAN_POINT ( 'NONE',  ( 4.189777606611760026E-14, 1.499759782661853229E-32, 12.00000000000000000 ) ) ;
#26 = CC_DESIGN_PERSON_AND_ORGANIZATION_ASSIGNMENT ( #18, #79, ( #160 ) ) ;
#27 = APPROVAL_ROLE ( '' ) ;
#28 = DIRECTION ( 'NONE',  ( -3.491481338843133355E-15, 1.224646799147353207E-16, -1.000000000000000000 ) ) ;
#29 = CIRCLE ( 'NONE', #198, 1.600000000000001199 ) ;
#30 = APPROVAL ( #145, 'UNSPECIFIED' ) ;
#31 = FACE_OUTER_BOUND ( 'NONE', #178, .T. ) ;
#32 = CARTESIAN_POINT ( 'NONE',  ( 1.731774744066194397E-13, -6.074248123770872657E-15, 49.60000000000000853 ) ) ;
#33 = CALENDAR_DATE ( 2021, 5, 11 ) ;
#34 = EDGE_CURVE ( 'NONE', #136, #136, #167, .T. ) ;
#35 = MECHANICAL_CONTEXT ( 'NONE', #74, 'mechanical' ) ;
#36 = PERSON_AND_ORGANIZATION ( #203, #213 ) ;
#37 = CARTESIAN_POINT ( 'NONE',  ( 4.189777606611760026E-14, 1.499759782661853229E-32, 12.00000000000000000 ) ) ;
#38 = CARTESIAN_POINT ( 'NONE',  ( 5.237222008264699047E-16, 0.0000000000000000000, 0.1499999999999999944 ) ) ;
#39 = CALENDAR_DATE ( 2021, 5, 11 ) ;
#40 = FACE_OUTER_BOUND ( 'NONE', #137, .T. ) ;
#41 = ORIENTED_EDGE ( 'NONE', *, *, #34, .F. ) ;
#42 = FACE_BOUND ( 'NONE', #15, .T. ) ;
#43 = DIRECTION ( 'NONE',  ( 0.0000000000000000000, 1.000000000000000000, 0.0000000000000000000 ) ) ;
#44 = DIRECTION ( 'NONE',  ( -3.491481338843133355E-15, 1.224646799147353207E-16, -1.000000000000000000 ) ) ;
#45 = EDGE_CURVE ( 'NONE', #106, #106, #95, .T. ) ;
#46 = COORDINATED_UNIVERSAL_TIME_OFFSET ( 1, 0, .AHEAD. ) ;
#47 = DATE_AND_TIME ( #222, #152 ) ;
#48 = AXIS2_PLACEMENT_3D ( 'NONE', #25, #5, #119 ) ;
#49 = CARTESIAN_POINT ( 'NONE',  ( 0.0000000000000000000, 0.0000000000000000000, 0.0000000000000000000 ) ) ;
#50 = APPLICATION_PROTOCOL_DEFINITION ( 'international standard', 'config_control_design', 1994, #216 ) ;
#51 = PLANE ( 'NONE',  #157 ) ;
#52 = CARTESIAN_POINT ( 'NONE',  ( 0.0000000000000000000, 0.0000000000000000000, 0.0000000000000000000 ) ) ;
#53 = ORIENTED_EDGE ( 'NONE', *, *, #45, .T. ) ;
#54 = CARTESIAN_POINT ( 'NONE',  ( 1.745740669421566678E-13, 1.199807826129477876E-32, 50.00000000000000000 ) ) ;
#55 = ORIENTED_EDGE ( 'NONE', *, *, #164, .T. ) ;
#56 = AXIS2_PLACEMENT_3D ( 'NONE', #93, #58, #14 ) ;
#57 = EDGE_LOOP ( 'NONE', ( #41 ) ) ;
#58 = DIRECTION ( 'NONE',  ( -3.491481338843133355E-15, 1.224646799147353207E-16, -1.000000000000000000 ) ) ;
#59 = PERSON_AND_ORGANIZATION_ROLE ( 'creator' ) ;
#60 = PRODUCT_DEFINITION_SHAPE ( 'NONE', 'NONE',  #217 ) ;
#61 = COORDINATED_UNIVERSAL_TIME_OFFSET ( 1, 0, .AHEAD. ) ;
#62 = CC_DESIGN_DATE_AND_TIME_ASSIGNMENT ( #98, #168, ( #217 ) ) ;
#63 = CC_DESIGN_APPROVAL ( #30, ( #113 ) ) ;
#64 = APPROVAL_DATE_TIME ( #144, #30 ) ;
#65 = PLANE ( 'NONE',  #17 ) ;
#66 = FACE_OUTER_BOUND ( 'NONE', #57, .T. ) ;
#67 = VERTEX_POINT ( 'NONE', #88 ) ;
#68 = FACE_OUTER_BOUND ( 'NONE', #89, .T. ) ;
#69 = DATE_AND_TIME ( #39, #123 ) ;
#70 = EDGE_LOOP ( 'NONE', ( #53 ) ) ;
#71 = AXIS2_PLACEMENT_3D ( 'NONE', #120, #84, #194 ) ;
#72 = ORIENTED_EDGE ( 'NONE', *, *, #101, .F. ) ;
#73 = SHAPE_DEFINITION_REPRESENTATION ( #60, #176 ) ;
#74 = APPLICATION_CONTEXT ( 'configuration controlled 3d designs of mechanical parts and assemblies' ) ;
#75 = ORIENTED_EDGE ( 'NONE', *, *, #199, .T. ) ;
#76 = CLOSED_SHELL ( 'NONE', ( #161, #211, #4, #105 ) ) ;
#77 =( NAMED_UNIT ( * ) PLANE_ANGLE_UNIT ( ) SI_UNIT ( $, .RADIAN. ) );
#78 = PERSON_AND_ORGANIZATION ( #203, #213 ) ;
#79 = PERSON_AND_ORGANIZATION_ROLE ( 'classification_officer' ) ;
#80 = CALENDAR_DATE ( 2021, 5, 11 ) ;
#81 = PERSON_AND_ORGANIZATION ( #203, #213 ) ;
#82 = AXIS2_PLACEMENT_3D ( 'NONE', #49, #130, #129 ) ;
#83 = FACE_OUTER_BOUND ( 'NONE', #174, .T. ) ;
#84 = DIRECTION ( 'NONE',  ( 3.491481338843133355E-15, -0.0000000000000000000, 1.000000000000000000 ) ) ;
#85 = APPROVAL ( #182, 'UNSPECIFIED' ) ;
#86 = FACE_OUTER_BOUND ( 'NONE', #70, .T. ) ;
#87 = AXIS2_PLACEMENT_3D ( 'NONE', #179, #28, #91 ) ;
#88 = CARTESIAN_POINT ( 'NONE',  ( 4.189777606611760026E-14, 1.999999999999995337, 12.00000000000000000 ) ) ;
#89 = EDGE_LOOP ( 'NONE', ( #75 ) ) ;
#90 = AXIS2_PLACEMENT_3D ( 'NONE', #32, #44, #43 ) ;
#91 = DIRECTION ( 'NONE',  ( 0.0000000000000000000, 1.000000000000000000, 0.0000000000000000000 ) ) ;
#92 = CYLINDRICAL_SURFACE ( 'NONE', #172, 1.999999999999995781 ) ;
#93 = CARTESIAN_POINT ( 'NONE',  ( 4.189777606611760026E-14, -1.469576158976823947E-15, 12.00000000000000000 ) ) ;
#94 = MANIFOLD_SOLID_BREP ( 'Corps-Déplacer/Copier1[2]', #159 ) ;
#95 = CIRCLE ( 'NONE', #90, 2.000000000000001332 ) ;
#96 = CC_DESIGN_APPROVAL ( #85, ( #160 ) ) ;
#97 = ADVANCED_FACE ( 'NONE', ( #111, #31 ), #92, .T. ) ;
#98 = DATE_AND_TIME ( #99, #6 ) ;
#99 = CALENDAR_DATE ( 2021, 5, 11 ) ;
#100 = CC_DESIGN_APPROVAL ( #139, ( #217 ) ) ;
#101 = EDGE_CURVE ( 'NONE', #67, #67, #142, .T. ) ;
#102 = VERTEX_POINT ( 'NONE', #223 ) ;
#103 = LOCAL_TIME ( 15, 46, 21.00000000000000000, #61 ) ;
#104 = DIRECTION ( 'NONE',  ( 3.491481338843133355E-15, -1.224646799147353207E-16, 1.000000000000000000 ) ) ;
#105 = ADVANCED_FACE ( 'NONE', ( #127 ), #121, .F. ) ;
#106 = VERTEX_POINT ( 'NONE', #156 ) ;
#107 = EDGE_LOOP ( 'NONE', ( #214 ) ) ;
#108 = APPROVAL_DATE_TIME ( #69, #85 ) ;
#109 = DIRECTION ( 'NONE',  ( 0.0000000000000000000, 1.000000000000000000, 0.0000000000000000000 ) ) ;
#110 = EDGE_LOOP ( 'NONE', ( #138 ) ) ;
#111 = FACE_OUTER_BOUND ( 'NONE', #181, .T. ) ;
#112 = ORIENTED_EDGE ( 'NONE', *, *, #101, .T. ) ;
#113 = PRODUCT_DEFINITION_FORMATION_WITH_SPECIFIED_SOURCE ( 'ANY', '', #146, .NOT_KNOWN. ) ;
#114 = APPLICATION_PROTOCOL_DEFINITION ( 'international standard', 'config_control_design', 1994, #74 ) ;
#115 = DATE_TIME_ROLE ( 'classification_date' ) ;
#116 =( NAMED_UNIT ( * ) SI_UNIT ( $, .STERADIAN. ) SOLID_ANGLE_UNIT ( ) );
#117 = DIRECTION ( 'NONE',  ( -3.491481338843133355E-15, 1.224646799147353207E-16, -1.000000000000000000 ) ) ;
#118 = CC_DESIGN_SECURITY_CLASSIFICATION ( #160, ( #113 ) ) ;
#119 = DIRECTION ( 'NONE',  ( -4.275831445896958607E-31, -1.000000000000000000, -1.224646799147353207E-16 ) ) ;
#120 = CARTESIAN_POINT ( 'NONE',  ( 5.237222008264699047E-16, 0.0000000000000000000, 0.1499999999999999944 ) ) ;
#121 = PLANE ( 'NONE',  #202 ) ;
#122 = CONICAL_SURFACE ( 'NONE', #87, 1.600000000000001199, 0.7853981633974516097 ) ;
#123 = LOCAL_TIME ( 15, 46, 21.00000000000000000, #141 ) ;
#124 = ORIENTED_EDGE ( 'NONE', *, *, #34, .T. ) ;
#125 = CC_DESIGN_DATE_AND_TIME_ASSIGNMENT ( #47, #115, ( #160 ) ) ;
#126 = AXIS2_PLACEMENT_3D ( 'NONE', #196, #162, #183 ) ;
#127 = FACE_OUTER_BOUND ( 'NONE', #212, .T. ) ;
#128 = PERSON_AND_ORGANIZATION_ROLE ( 'creator' ) ;
#129 = DIRECTION ( 'NONE',  ( 1.000000000000000000, 0.0000000000000000000, 0.0000000000000000000 ) ) ;
#130 = DIRECTION ( 'NONE',  ( 0.0000000000000000000, 0.0000000000000000000, 1.000000000000000000 ) ) ;
#131 = CC_DESIGN_PERSON_AND_ORGANIZATION_ASSIGNMENT ( #2, #59, ( #217 ) ) ;
#132 = DIRECTION ( 'NONE',  ( 4.275831445896958607E-31, 1.000000000000000000, 1.224646799147353207E-16 ) ) ;
#133 = CARTESIAN_POINT ( 'NONE',  ( 4.189777606611760026E-14, -1.469576158976823947E-15, 12.00000000000000000 ) ) ;
#134 = LOCAL_TIME ( 15, 46, 21.00000000000000000, #46 ) ;
#135 = DIRECTION ( 'NONE',  ( -3.491481338843133355E-15, 1.224646799147353207E-16, -1.000000000000000000 ) ) ;
#136 = VERTEX_POINT ( 'NONE', #175 ) ;
#137 = EDGE_LOOP ( 'NONE', ( #10 ) ) ;
#138 = ORIENTED_EDGE ( 'NONE', *, *, #199, .F. ) ;
#139 = APPROVAL ( #169, 'UNSPECIFIED' ) ;
#140 = DIRECTION ( 'NONE',  ( -3.491481338843133355E-15, 1.224646799147353207E-16, -1.000000000000000000 ) ) ;
#141 = COORDINATED_UNIVERSAL_TIME_OFFSET ( 1, 0, .AHEAD. ) ;
#142 = CIRCLE ( 'NONE', #56, 1.999999999999996669 ) ;
#143 = PRODUCT_RELATED_PRODUCT_CATEGORY ( 'detail', '', ( #146 ) ) ;
#144 = DATE_AND_TIME ( #80, #103 ) ;
#145 = APPROVAL_STATUS ( 'not_yet_approved' ) ;
#146 = PRODUCT ( '46562', '46562', '', ( #35 ) ) ;
#147 = COORDINATED_UNIVERSAL_TIME_OFFSET ( 1, 0, .AHEAD. ) ;
#148 = EDGE_CURVE ( 'NONE', #158, #158, #151, .T. ) ;
#149 = CARTESIAN_POINT ( 'NONE',  ( 1.745740669421566678E-13, 1.599999999999994982, 50.00000000000000000 ) ) ;
#150 = APPROVAL_ROLE ( '' ) ;
#151 = CIRCLE ( 'NONE', #71, 2.000000000000000000 ) ;
#152 = LOCAL_TIME ( 15, 46, 21.00000000000000000, #147 ) ;
#153 = ADVANCED_FACE ( 'NONE', ( #23, #40 ), #165, .T. ) ;
#154 = DIRECTION ( 'NONE',  ( 3.491481338843133355E-15, -1.224646799147353207E-16, 1.000000000000000000 ) ) ;
#155 = PLANE ( 'NONE',  #48 ) ;
#156 = CARTESIAN_POINT ( 'NONE',  ( 1.731774744066194397E-13, 1.999999999999995337, 49.60000000000000853 ) ) ;
#157 = AXIS2_PLACEMENT_3D ( 'NONE', #206, #154, #7 ) ;
#158 = VERTEX_POINT ( 'NONE', #9 ) ;
#159 = CLOSED_SHELL ( 'NONE', ( #97, #219, #153, #186 ) ) ;
#160 = SECURITY_CLASSIFICATION ( '', '', #191 ) ;
#161 = ADVANCED_FACE ( 'NONE', ( #68 ), #155, .F. ) ;
#162 = DIRECTION ( 'NONE',  ( 3.491481338843133355E-15, -0.0000000000000000000, 1.000000000000000000 ) ) ;
#163 = EDGE_LOOP ( 'NONE', ( #124 ) ) ;
#164 = EDGE_CURVE ( 'NONE', #210, #210, #29, .T. ) ;
#165 = CONICAL_SURFACE ( 'NONE', #220, 2.000000000000000000, 0.7853981633974423948 ) ;
#166 = CC_DESIGN_PERSON_AND_ORGANIZATION_ASSIGNMENT ( #204, #201, ( #113 ) ) ;
#167 = CIRCLE ( 'NONE', #126, 1.850000000000001865 ) ;
#168 = DATE_TIME_ROLE ( 'creation_date' ) ;
#169 = APPROVAL_STATUS ( 'not_yet_approved' ) ;
#170 = PERSON_AND_ORGANIZATION ( #203, #213 ) ;
#171 = DIRECTION ( 'NONE',  ( 1.000000000000000000, 0.0000000000000000000, -3.496552006265751800E-15 ) ) ;
#172 = AXIS2_PLACEMENT_3D ( 'NONE', #13, #140, #197 ) ;
#173 = DIRECTION ( 'NONE',  ( -4.275831445896958607E-31, -1.000000000000000000, -1.224646799147353207E-16 ) ) ;
#174 = EDGE_LOOP ( 'NONE', ( #72 ) ) ;
#175 = CARTESIAN_POINT ( 'NONE',  ( 1.850000000000001865, 0.0000000000000000000, -6.459240476859803018E-15 ) ) ;
#176 = ADVANCED_BREP_SHAPE_REPRESENTATION ( '46562', ( #19, #94, #82 ), #1 ) ;
#177 = CYLINDRICAL_SURFACE ( 'NONE', #218, 1.999999999999999112 ) ;
#178 = EDGE_LOOP ( 'NONE', ( #215 ) ) ;
#179 = CARTESIAN_POINT ( 'NONE',  ( 1.745740669421566678E-13, -6.123233995736766085E-15, 50.00000000000000000 ) ) ;
#180 = APPROVAL_PERSON_ORGANIZATION ( #81, #139, #150 ) ;
#181 = EDGE_LOOP ( 'NONE', ( #112 ) ) ;
#182 = APPROVAL_STATUS ( 'not_yet_approved' ) ;
#183 = DIRECTION ( 'NONE',  ( 1.000000000000000000, 0.0000000000000000000, -3.491481338843133355E-15 ) ) ;
#184 = APPROVAL_PERSON_ORGANIZATION ( #188, #85, #27 ) ;
#185 = COORDINATED_UNIVERSAL_TIME_OFFSET ( 1, 0, .AHEAD. ) ;
#186 = ADVANCED_FACE ( 'NONE', ( #66 ), #51, .F. ) ;
#187 = CIRCLE ( 'NONE', #195, 1.999999999999996669 ) ;
#188 = PERSON_AND_ORGANIZATION ( #203, #213 ) ;
#189 = CC_DESIGN_PERSON_AND_ORGANIZATION_ASSIGNMENT ( #170, #20, ( #146 ) ) ;
#190 =( LENGTH_UNIT ( ) NAMED_UNIT ( * ) SI_UNIT ( .MILLI., .METRE. ) );
#191 = SECURITY_CLASSIFICATION_LEVEL ( 'unclassified' ) ;
#192 = DIRECTION ( 'NONE',  ( -3.491481338843133355E-15, 1.224646799147353207E-16, -1.000000000000000000 ) ) ;
#193 = DIRECTION ( 'NONE',  ( 4.275831445896958607E-31, 1.000000000000000000, 1.224646799147353207E-16 ) ) ;
#194 = DIRECTION ( 'NONE',  ( 1.000000000000000000, 0.0000000000000000000, -3.496552006265751800E-15 ) ) ;
#195 = AXIS2_PLACEMENT_3D ( 'NONE', #133, #192, #207 ) ;
#196 = CARTESIAN_POINT ( 'NONE',  ( 0.0000000000000000000, 0.0000000000000000000, 0.0000000000000000000 ) ) ;
#197 = DIRECTION ( 'NONE',  ( 4.275831445896958607E-31, 1.000000000000000000, 1.224646799147352961E-16 ) ) ;
#198 = AXIS2_PLACEMENT_3D ( 'NONE', #209, #22, #109 ) ;
#199 = EDGE_CURVE ( 'NONE', #102, #102, #187, .T. ) ;
#200 = DATE_AND_TIME ( #33, #134 ) ;
#201 = PERSON_AND_ORGANIZATION_ROLE ( 'design_supplier' ) ;
#202 = AXIS2_PLACEMENT_3D ( 'NONE', #54, #135, #193 ) ;
#203 = PERSON ( 'UNSPECIFIED', 'UNSPECIFIED', 'UNSPECIFIED', ('UNSPECIFIED'), ('UNSPECIFIED'), ('UNSPECIFIED') ) ;
#204 = PERSON_AND_ORGANIZATION ( #203, #213 ) ;
#205 = DESIGN_CONTEXT ( 'detailed design', #216, 'design' ) ;
#206 = CARTESIAN_POINT ( 'NONE',  ( -3.206893176760999064E-31, 1.124826709063586057E-32, -9.184907108292236459E-17 ) ) ;
#207 = DIRECTION ( 'NONE',  ( 0.0000000000000000000, 1.000000000000000000, 0.0000000000000000000 ) ) ;
#208 = CC_DESIGN_PERSON_AND_ORGANIZATION_ASSIGNMENT ( #36, #128, ( #113 ) ) ;
#209 = CARTESIAN_POINT ( 'NONE',  ( 1.745740669421566678E-13, -6.123233995736766085E-15, 50.00000000000000000 ) ) ;
#210 = VERTEX_POINT ( 'NONE', #149 ) ;
#211 = ADVANCED_FACE ( 'NONE', ( #3, #86 ), #177, .T. ) ;
#212 = EDGE_LOOP ( 'NONE', ( #11 ) ) ;
#213 = ORGANIZATION ( 'UNSPECIFIED', 'UNSPECIFIED', '' ) ;
#214 = ORIENTED_EDGE ( 'NONE', *, *, #45, .F. ) ;
#215 = ORIENTED_EDGE ( 'NONE', *, *, #148, .T. ) ;
#216 = APPLICATION_CONTEXT ( 'configuration controlled 3d designs of mechanical parts and assemblies' ) ;
#217 = PRODUCT_DEFINITION ( 'UNKNOWN', '', #113, #205 ) ;
#218 = AXIS2_PLACEMENT_3D ( 'NONE', #52, #117, #132 ) ;
#219 = ADVANCED_FACE ( 'NONE', ( #83 ), #65, .T. ) ;
#220 = AXIS2_PLACEMENT_3D ( 'NONE', #38, #24, #171 ) ;
#221 = APPROVAL_ROLE ( '' ) ;
#222 = CALENDAR_DATE ( 2021, 5, 11 ) ;
#223 = CARTESIAN_POINT ( 'NONE',  ( 4.189777606611760026E-14, 1.999999999999995337, 12.00000000000000000 ) ) ;
ENDSEC;
END-ISO-10303-21;
