ISO-10303-21;
HEADER;
FILE_DESCRIPTION (( 'STEP AP203' ),
    '1' );
FILE_NAME ('46561.step',
    '2021-11-05T14:46:21',
    ( '' ),
    ( '' ),
    'SwSTEP 2.0',
    'SolidWorks 2019',
    '' );
FILE_SCHEMA (( 'CONFIG_CONTROL_DESIGN' ));
ENDSEC;

DATA;
#1 = DIRECTION ( 'NONE',  ( 0.0000000000000000000, 0.0000000000000000000, 1.000000000000000000 ) ) ;
#2 = DIRECTION ( 'NONE',  ( 0.0000000000000000000, 1.000000000000000000, 0.0000000000000000000 ) ) ;
#3 = EDGE_CURVE ( 'NONE', #32, #32, #131, .T. ) ;
#4 = EDGE_LOOP ( 'NONE', ( #102 ) ) ;
#5 = VERTEX_POINT ( 'NONE', #65 ) ;
#6 = EDGE_LOOP ( 'NONE', ( #156 ) ) ;
#7 = COORDINATED_UNIVERSAL_TIME_OFFSET ( 1, 0, .AHEAD. ) ;
#8 = DIRECTION ( 'NONE',  ( -3.491481338843133355E-15, 1.224646799147353207E-16, -1.000000000000000000 ) ) ;
#9 = AXIS2_PLACEMENT_3D ( 'NONE', #186, #148, #80 ) ;
#10 = APPROVAL_ROLE ( '' ) ;
#11 = PLANE ( 'NONE',  #51 ) ;
#12 = DIRECTION ( 'NONE',  ( -3.491481338843133355E-15, 1.224646799147353207E-16, -1.000000000000000000 ) ) ;
#13 = APPLICATION_PROTOCOL_DEFINITION ( 'international standard', 'config_control_design', 1994, #136 ) ;
#14 = PLANE ( 'NONE',  #174 ) ;
#15 = MANIFOLD_SOLID_BREP ( 'Corps-Déplacer/Copier1[2]', #106 ) ;
#16 = VERTEX_POINT ( 'NONE', #134 ) ;
#17 = CARTESIAN_POINT ( 'NONE',  ( 2.094888803305880013E-14, 1.124819836996387185E-32, 6.000000000000000000 ) ) ;
#18 = CYLINDRICAL_SURFACE ( 'NONE', #83, 1.499999999999995337 ) ;
#19 = ORIENTED_EDGE ( 'NONE', *, *, #161, .F. ) ;
#20 = PERSON_AND_ORGANIZATION ( #70, #219 ) ;
#21 = ORIENTED_EDGE ( 'NONE', *, *, #191, .T. ) ;
#22 = DIRECTION ( 'NONE',  ( 3.491481338843133355E-15, -1.224646799147353207E-16, 1.000000000000000000 ) ) ;
#23 = APPROVAL_ROLE ( '' ) ;
#24 = CC_DESIGN_DATE_AND_TIME_ASSIGNMENT ( #183, #79, ( #172 ) ) ;
#25 = PLANE ( 'NONE',  #212 ) ;
#26 = DATE_AND_TIME ( #160, #101 ) ;
#27 = CARTESIAN_POINT ( 'NONE',  ( 1.316288464743861212E-13, -4.616918432785521081E-15, 37.69999999999999574 ) ) ;
#28 = AXIS2_PLACEMENT_3D ( 'NONE', #133, #207, #54 ) ;
#29 = CC_DESIGN_APPROVAL ( #99, ( #172 ) ) ;
#30 =( GEOMETRIC_REPRESENTATION_CONTEXT ( 3 ) GLOBAL_UNCERTAINTY_ASSIGNED_CONTEXT ( ( #176 ) ) GLOBAL_UNIT_ASSIGNED_CONTEXT ( ( #120, #117, #96 ) ) REPRESENTATION_CONTEXT ( 'NONE', 'WORKASPACE' ) );
#31 = CC_DESIGN_APPROVAL ( #150, ( #169 ) ) ;
#32 = VERTEX_POINT ( 'NONE', #56 ) ;
#33 = CC_DESIGN_PERSON_AND_ORGANIZATION_ASSIGNMENT ( #197, #127, ( #220 ) ) ;
#34 = APPLICATION_PROTOCOL_DEFINITION ( 'international standard', 'config_control_design', 1994, #82 ) ;
#35 = DIRECTION ( 'NONE',  ( 3.491481338843133355E-15, -1.224646799147353207E-16, 1.000000000000000000 ) ) ;
#36 = FACE_OUTER_BOUND ( 'NONE', #57, .T. ) ;
#37 = VERTEX_POINT ( 'NONE', #115 ) ;
#38 = COORDINATED_UNIVERSAL_TIME_OFFSET ( 1, 0, .AHEAD. ) ;
#39 = CIRCLE ( 'NONE', #206, 1.499999999999993339 ) ;
#40 = EDGE_LOOP ( 'NONE', ( #19 ) ) ;
#41 = PRODUCT_DEFINITION_FORMATION_WITH_SPECIFIED_SOURCE ( 'ANY', '', #220, .NOT_KNOWN. ) ;
#42 = CALENDAR_DATE ( 2021, 5, 11 ) ;
#43 = EDGE_LOOP ( 'NONE', ( #21 ) ) ;
#44 = COORDINATED_UNIVERSAL_TIME_OFFSET ( 1, 0, .AHEAD. ) ;
#45 = DIRECTION ( 'NONE',  ( -4.275831445896958607E-31, -1.000000000000000000, -1.224646799147353207E-16 ) ) ;
#46 = PERSON_AND_ORGANIZATION_ROLE ( 'classification_officer' ) ;
#47 = DIRECTION ( 'NONE',  ( 3.491481338843133355E-15, -1.224646799147353207E-16, 1.000000000000000000 ) ) ;
#48 = AXIS2_PLACEMENT_3D ( 'NONE', #27, #104, #188 ) ;
#49 = PERSON_AND_ORGANIZATION ( #70, #219 ) ;
#50 = CARTESIAN_POINT ( 'NONE',  ( -8.551680453529352552E-31, 2.999525725151307637E-32, -2.449298628175645789E-16 ) ) ;
#51 = AXIS2_PLACEMENT_3D ( 'NONE', #92, #22, #76 ) ;
#52 = PLANE ( 'NONE',  #116 ) ;
#53 = LOCAL_TIME ( 15, 46, 21.00000000000000000, #38 ) ;
#54 = DIRECTION ( 'NONE',  ( 1.000000000000000000, 0.0000000000000000000, -3.491481338843133355E-15 ) ) ;
#55 = ORIENTED_EDGE ( 'NONE', *, *, #94, .T. ) ;
#56 = CARTESIAN_POINT ( 'NONE',  ( 2.094888803305880013E-14, 1.499999999999992673, 6.000000000000000000 ) ) ;
#57 = EDGE_LOOP ( 'NONE', ( #198 ) ) ;
#58 = DIRECTION ( 'NONE',  ( 0.0000000000000000000, 1.000000000000000000, 0.0000000000000000000 ) ) ;
#59 = DIRECTION ( 'NONE',  ( 4.275831445896958607E-31, 1.000000000000000000, 1.224646799147353207E-16 ) ) ;
#60 = APPROVAL_STATUS ( 'not_yet_approved' ) ;
#61 = DIRECTION ( 'NONE',  ( 4.275831445896958607E-31, 1.000000000000000000, 1.224646799147353207E-16 ) ) ;
#62 = AXIS2_PLACEMENT_3D ( 'NONE', #153, #1, #67 ) ;
#63 = PERSON_AND_ORGANIZATION ( #70, #219 ) ;
#64 = CC_DESIGN_PERSON_AND_ORGANIZATION_ASSIGNMENT ( #149, #146, ( #172 ) ) ;
#65 = CARTESIAN_POINT ( 'NONE',  ( 1.316288464743861212E-13, 1.499999999999992673, 37.69999999999999574 ) ) ;
#66 = VERTEX_POINT ( 'NONE', #85 ) ;
#67 = DIRECTION ( 'NONE',  ( 1.000000000000000000, 0.0000000000000000000, 0.0000000000000000000 ) ) ;
#68 = EDGE_LOOP ( 'NONE', ( #142 ) ) ;
#69 = ORIENTED_EDGE ( 'NONE', *, *, #94, .F. ) ;
#70 = PERSON ( 'UNSPECIFIED', 'UNSPECIFIED', 'UNSPECIFIED', ('UNSPECIFIED'), ('UNSPECIFIED'), ('UNSPECIFIED') ) ;
#71 = APPROVAL_STATUS ( 'not_yet_approved' ) ;
#72 = DIRECTION ( 'NONE',  ( 0.0000000000000000000, 1.000000000000000000, 0.0000000000000000000 ) ) ;
#73 = AXIS2_PLACEMENT_3D ( 'NONE', #90, #164, #111 ) ;
#74 = ORIENTED_EDGE ( 'NONE', *, *, #205, .T. ) ;
#75 = PERSON_AND_ORGANIZATION_ROLE ( 'creator' ) ;
#76 = DIRECTION ( 'NONE',  ( -4.275831445896958607E-31, -1.000000000000000000, -1.224646799147353207E-16 ) ) ;
#77 = APPROVAL_STATUS ( 'not_yet_approved' ) ;
#78 = CARTESIAN_POINT ( 'NONE',  ( 1.326762908760390423E-13, 8.998558695971058066E-33, 38.00000000000000000 ) ) ;
#79 = DATE_TIME_ROLE ( 'creation_date' ) ;
#80 = DIRECTION ( 'NONE',  ( 0.0000000000000000000, 1.000000000000000000, 0.0000000000000000000 ) ) ;
#81 = APPROVAL_PERSON_ORGANIZATION ( #49, #151, #10 ) ;
#82 = APPLICATION_CONTEXT ( 'configuration controlled 3d designs of mechanical parts and assemblies' ) ;
#83 = AXIS2_PLACEMENT_3D ( 'NONE', #155, #211, #59 ) ;
#84 = DIRECTION ( 'NONE',  ( -3.491481338843133355E-15, 1.224646799147353207E-16, -1.000000000000000000 ) ) ;
#85 = CARTESIAN_POINT ( 'NONE',  ( 2.094888803305880013E-14, 1.499999999999992673, 6.000000000000000000 ) ) ;
#86 = CLOSED_SHELL ( 'NONE', ( #221, #137, #95, #145 ) ) ;
#87 = EDGE_LOOP ( 'NONE', ( #178 ) ) ;
#88 = EDGE_LOOP ( 'NONE', ( #69 ) ) ;
#89 = CIRCLE ( 'NONE', #222, 1.500000000000000000 ) ;
#90 = CARTESIAN_POINT ( 'NONE',  ( 0.0000000000000000000, 0.0000000000000000000, 0.0000000000000000000 ) ) ;
#91 = DIRECTION ( 'NONE',  ( 1.000000000000000000, 0.0000000000000000000, -3.487516988161706061E-15 ) ) ;
#92 = CARTESIAN_POINT ( 'NONE',  ( 2.094888803305880013E-14, 1.124819836996387185E-32, 6.000000000000000000 ) ) ;
#93 = AXIS2_PLACEMENT_3D ( 'NONE', #157, #135, #72 ) ;
#94 = EDGE_CURVE ( 'NONE', #66, #66, #39, .T. ) ;
#95 = ADVANCED_FACE ( 'NONE', ( #159, #214 ), #195, .T. ) ;
#96 =( NAMED_UNIT ( * ) SI_UNIT ( $, .STERADIAN. ) SOLID_ANGLE_UNIT ( ) );
#97 = CIRCLE ( 'NONE', #9, 1.199999999999997291 ) ;
#98 = EDGE_LOOP ( 'NONE', ( #74 ) ) ;
#99 = APPROVAL ( #77, 'UNSPECIFIED' ) ;
#100 = CALENDAR_DATE ( 2021, 5, 11 ) ;
#101 = LOCAL_TIME ( 15, 46, 21.00000000000000000, #138 ) ;
#102 = ORIENTED_EDGE ( 'NONE', *, *, #121, .F. ) ;
#103 = SHAPE_DEFINITION_REPRESENTATION ( #162, #216 ) ;
#104 = DIRECTION ( 'NONE',  ( -3.491481338843133355E-15, 1.224646799147353207E-16, -1.000000000000000000 ) ) ;
#105 = SECURITY_CLASSIFICATION_LEVEL ( 'unclassified' ) ;
#106 = CLOSED_SHELL ( 'NONE', ( #181, #168, #189, #179 ) ) ;
#107 = DIRECTION ( 'NONE',  ( 3.491481338843133355E-15, -0.0000000000000000000, 1.000000000000000000 ) ) ;
#108 = DIRECTION ( 'NONE',  ( 3.491481338843133355E-15, -0.0000000000000000000, 1.000000000000000000 ) ) ;
#109 = PERSON_AND_ORGANIZATION_ROLE ( 'design_supplier' ) ;
#110 = PRODUCT_RELATED_PRODUCT_CATEGORY ( 'detail', '', ( #220 ) ) ;
#111 = DIRECTION ( 'NONE',  ( 4.275831445896958607E-31, 1.000000000000000000, 1.224646799147353207E-16 ) ) ;
#112 = AXIS2_PLACEMENT_3D ( 'NONE', #125, #84, #2 ) ;
#113 = CARTESIAN_POINT ( 'NONE',  ( 5.237222008264699047E-16, 0.0000000000000000000, 0.1499999999999999944 ) ) ;
#114 = APPROVAL_PERSON_ORGANIZATION ( #163, #99, #165 ) ;
#115 = CARTESIAN_POINT ( 'NONE',  ( 1.500000000000000444, 0.0000000000000000000, 0.1499999999999947486 ) ) ;
#116 = AXIS2_PLACEMENT_3D ( 'NONE', #17, #35, #177 ) ;
#117 =( NAMED_UNIT ( * ) PLANE_ANGLE_UNIT ( ) SI_UNIT ( $, .RADIAN. ) );
#118 = ORIENTED_EDGE ( 'NONE', *, *, #3, .F. ) ;
#119 = EDGE_LOOP ( 'NONE', ( #55 ) ) ;
#120 =( LENGTH_UNIT ( ) NAMED_UNIT ( * ) SI_UNIT ( .MILLI., .METRE. ) );
#121 = EDGE_CURVE ( 'NONE', #154, #154, #124, .T. ) ;
#122 = EDGE_LOOP ( 'NONE', ( #175 ) ) ;
#123 = MECHANICAL_CONTEXT ( 'NONE', #82, 'mechanical' ) ;
#124 = CIRCLE ( 'NONE', #28, 1.350000000000001865 ) ;
#125 = CARTESIAN_POINT ( 'NONE',  ( 1.326762908760390423E-13, -4.653657836759941941E-15, 38.00000000000000000 ) ) ;
#126 = APPROVAL_DATE_TIME ( #180, #150 ) ;
#127 = PERSON_AND_ORGANIZATION_ROLE ( 'design_owner' ) ;
#128 = CARTESIAN_POINT ( 'NONE',  ( 5.237222008264699047E-16, 0.0000000000000000000, 0.1499999999999999944 ) ) ;
#129 = CC_DESIGN_DATE_AND_TIME_ASSIGNMENT ( #193, #187, ( #169 ) ) ;
#130 = AXIS2_PLACEMENT_3D ( 'NONE', #128, #108, #91 ) ;
#131 = CIRCLE ( 'NONE', #93, 1.499999999999993339 ) ;
#132 = CC_DESIGN_PERSON_AND_ORGANIZATION_ASSIGNMENT ( #63, #46, ( #169 ) ) ;
#133 = CARTESIAN_POINT ( 'NONE',  ( 5.039471573744786815E-33, 0.0000000000000000000, 1.443362024502345993E-18 ) ) ;
#134 = CARTESIAN_POINT ( 'NONE',  ( 1.326762908760390423E-13, 1.199999999999992628, 38.00000000000000000 ) ) ;
#135 = DIRECTION ( 'NONE',  ( -3.491481338843133355E-15, 1.224646799147353207E-16, -1.000000000000000000 ) ) ;
#136 = APPLICATION_CONTEXT ( 'configuration controlled 3d designs of mechanical parts and assemblies' ) ;
#137 = ADVANCED_FACE ( 'NONE', ( #192, #36 ), #18, .T. ) ;
#138 = COORDINATED_UNIVERSAL_TIME_OFFSET ( 1, 0, .AHEAD. ) ;
#139 = CARTESIAN_POINT ( 'NONE',  ( 2.094888803305880013E-14, -7.347880794884119736E-16, 6.000000000000000000 ) ) ;
#140 = CIRCLE ( 'NONE', #48, 1.499999999999997113 ) ;
#141 = LOCAL_TIME ( 15, 46, 21.00000000000000000, #44 ) ;
#142 = ORIENTED_EDGE ( 'NONE', *, *, #205, .F. ) ;
#143 = DATE_AND_TIME ( #213, #184 ) ;
#144 = FACE_BOUND ( 'NONE', #122, .T. ) ;
#145 = ADVANCED_FACE ( 'NONE', ( #185 ), #25, .F. ) ;
#146 = PERSON_AND_ORGANIZATION_ROLE ( 'creator' ) ;
#147 = CYLINDRICAL_SURFACE ( 'NONE', #73, 1.499999999999993117 ) ;
#148 = DIRECTION ( 'NONE',  ( -3.491481338843133355E-15, 1.224646799147353207E-16, -1.000000000000000000 ) ) ;
#149 = PERSON_AND_ORGANIZATION ( #70, #219 ) ;
#150 = APPROVAL ( #60, 'UNSPECIFIED' ) ;
#151 = APPROVAL ( #71, 'UNSPECIFIED' ) ;
#152 = CC_DESIGN_SECURITY_CLASSIFICATION ( #169, ( #41 ) ) ;
#153 = CARTESIAN_POINT ( 'NONE',  ( 0.0000000000000000000, 0.0000000000000000000, 0.0000000000000000000 ) ) ;
#154 = VERTEX_POINT ( 'NONE', #210 ) ;
#155 = CARTESIAN_POINT ( 'NONE',  ( 0.0000000000000000000, 0.0000000000000000000, 0.0000000000000000000 ) ) ;
#156 = ORIENTED_EDGE ( 'NONE', *, *, #3, .T. ) ;
#157 = CARTESIAN_POINT ( 'NONE',  ( 2.094888803305880013E-14, -7.347880794884119736E-16, 6.000000000000000000 ) ) ;
#158 = PERSON_AND_ORGANIZATION ( #70, #219 ) ;
#159 = FACE_OUTER_BOUND ( 'NONE', #40, .T. ) ;
#160 = CALENDAR_DATE ( 2021, 5, 11 ) ;
#161 = EDGE_CURVE ( 'NONE', #5, #5, #140, .T. ) ;
#162 = PRODUCT_DEFINITION_SHAPE ( 'NONE', 'NONE',  #172 ) ;
#163 = PERSON_AND_ORGANIZATION ( #70, #219 ) ;
#164 = DIRECTION ( 'NONE',  ( -3.491481338843133355E-15, 1.224646799147353207E-16, -1.000000000000000000 ) ) ;
#165 = APPROVAL_ROLE ( '' ) ;
#166 = MANIFOLD_SOLID_BREP ( 'Corps-Déplacer/Copier1[1]', #86 ) ;
#167 = FACE_OUTER_BOUND ( 'NONE', #4, .T. ) ;
#168 = ADVANCED_FACE ( 'NONE', ( #182 ), #11, .T. ) ;
#169 = SECURITY_CLASSIFICATION ( '', '', #105 ) ;
#170 = CC_DESIGN_PERSON_AND_ORGANIZATION_ASSIGNMENT ( #158, #109, ( #41 ) ) ;
#171 = CC_DESIGN_APPROVAL ( #151, ( #41 ) ) ;
#172 = PRODUCT_DEFINITION ( 'UNKNOWN', '', #41, #199 ) ;
#173 = FACE_OUTER_BOUND ( 'NONE', #119, .T. ) ;
#174 = AXIS2_PLACEMENT_3D ( 'NONE', #50, #47, #45 ) ;
#175 = ORIENTED_EDGE ( 'NONE', *, *, #121, .T. ) ;
#176 = UNCERTAINTY_MEASURE_WITH_UNIT (LENGTH_MEASURE( 1.000000000000000082E-05 ), #120, 'distance_accuracy_value', 'NONE');
#177 = DIRECTION ( 'NONE',  ( -4.275831445896958607E-31, -1.000000000000000000, -1.224646799147353207E-16 ) ) ;
#178 = ORIENTED_EDGE ( 'NONE', *, *, #191, .F. ) ;
#179 = ADVANCED_FACE ( 'NONE', ( #167 ), #14, .F. ) ;
#180 = DATE_AND_TIME ( #100, #53 ) ;
#181 = ADVANCED_FACE ( 'NONE', ( #203, #201 ), #147, .T. ) ;
#182 = FACE_OUTER_BOUND ( 'NONE', #194, .T. ) ;
#183 = DATE_AND_TIME ( #202, #190 ) ;
#184 = LOCAL_TIME ( 15, 46, 21.00000000000000000, #196 ) ;
#185 = FACE_OUTER_BOUND ( 'NONE', #87, .T. ) ;
#186 = CARTESIAN_POINT ( 'NONE',  ( 1.326762908760390423E-13, -4.653657836759941941E-15, 38.00000000000000000 ) ) ;
#187 = DATE_TIME_ROLE ( 'classification_date' ) ;
#188 = DIRECTION ( 'NONE',  ( 0.0000000000000000000, 1.000000000000000000, 0.0000000000000000000 ) ) ;
#189 = ADVANCED_FACE ( 'NONE', ( #144, #215 ), #204, .T. ) ;
#190 = LOCAL_TIME ( 15, 46, 21.00000000000000000, #7 ) ;
#191 = EDGE_CURVE ( 'NONE', #16, #16, #97, .T. ) ;
#192 = FACE_OUTER_BOUND ( 'NONE', #88, .T. ) ;
#193 = DATE_AND_TIME ( #42, #141 ) ;
#194 = EDGE_LOOP ( 'NONE', ( #118 ) ) ;
#195 = CONICAL_SURFACE ( 'NONE', #112, 1.199999999999997291, 0.7853981633974453924 ) ;
#196 = COORDINATED_UNIVERSAL_TIME_OFFSET ( 1, 0, .AHEAD. ) ;
#197 = PERSON_AND_ORGANIZATION ( #70, #219 ) ;
#198 = ORIENTED_EDGE ( 'NONE', *, *, #161, .T. ) ;
#199 = DESIGN_CONTEXT ( 'detailed design', #136, 'design' ) ;
#200 = APPROVAL_DATE_TIME ( #26, #99 ) ;
#201 = FACE_OUTER_BOUND ( 'NONE', #98, .T. ) ;
#202 = CALENDAR_DATE ( 2021, 5, 11 ) ;
#203 = FACE_OUTER_BOUND ( 'NONE', #6, .T. ) ;
#204 = CONICAL_SURFACE ( 'NONE', #130, 1.500000000000000000, 0.7853981633974423948 ) ;
#205 = EDGE_CURVE ( 'NONE', #37, #37, #89, .T. ) ;
#206 = AXIS2_PLACEMENT_3D ( 'NONE', #139, #8, #58 ) ;
#207 = DIRECTION ( 'NONE',  ( 3.491481338843133355E-15, -0.0000000000000000000, 1.000000000000000000 ) ) ;
#208 = APPROVAL_PERSON_ORGANIZATION ( #217, #150, #23 ) ;
#209 = CC_DESIGN_PERSON_AND_ORGANIZATION_ASSIGNMENT ( #20, #75, ( #41 ) ) ;
#210 = CARTESIAN_POINT ( 'NONE',  ( 1.350000000000001865, 0.0000000000000000000, -4.712056445413734019E-15 ) ) ;
#211 = DIRECTION ( 'NONE',  ( -3.491481338843133355E-15, 1.224646799147353207E-16, -1.000000000000000000 ) ) ;
#212 = AXIS2_PLACEMENT_3D ( 'NONE', #78, #12, #61 ) ;
#213 = CALENDAR_DATE ( 2021, 5, 11 ) ;
#214 = FACE_BOUND ( 'NONE', #43, .T. ) ;
#215 = FACE_OUTER_BOUND ( 'NONE', #68, .T. ) ;
#216 = ADVANCED_BREP_SHAPE_REPRESENTATION ( '46561', ( #166, #15, #62 ), #30 ) ;
#217 = PERSON_AND_ORGANIZATION ( #70, #219 ) ;
#218 = APPROVAL_DATE_TIME ( #143, #151 ) ;
#219 = ORGANIZATION ( 'UNSPECIFIED', 'UNSPECIFIED', '' ) ;
#220 = PRODUCT ( '46561', '46561', '', ( #123 ) ) ;
#221 = ADVANCED_FACE ( 'NONE', ( #173 ), #52, .F. ) ;
#222 = AXIS2_PLACEMENT_3D ( 'NONE', #113, #107, #223 ) ;
#223 = DIRECTION ( 'NONE',  ( 1.000000000000000000, 0.0000000000000000000, -3.487516988161706061E-15 ) ) ;
ENDSEC;
END-ISO-10303-21;
