ISO-10303-21;
HEADER;
FILE_DESCRIPTION (( 'STEP AP203' ),
    '1' );
FILE_NAME ('46466.step',
    '2021-12-06T12:59:45',
    ( '' ),
    ( '' ),
    'SwSTEP 2.0',
    'SolidWorks 2019',
    '' );
FILE_SCHEMA (( 'CONFIG_CONTROL_DESIGN' ));
ENDSEC;

DATA;
#1 = CIRCLE ( 'NONE', #161, 40.00000000000000000 ) ;
#2 = LOCAL_TIME ( 13, 59, 45.00000000000000000, #54 ) ;
#3 = PERSON_AND_ORGANIZATION_ROLE ( 'design_supplier' ) ;
#4 = DATE_AND_TIME ( #26, #118 ) ;
#5 = APPROVAL ( #135, 'UNSPECIFIED' ) ;
#6 = SECURITY_CLASSIFICATION ( '', '', #158 ) ;
#7 = APPROVAL ( #92, 'UNSPECIFIED' ) ;
#8 = EDGE_LOOP ( 'NONE', ( #65 ) ) ;
#9 = CARTESIAN_POINT ( 'NONE',  ( 0.0000000000000000000, 40.00000000000000000, 0.0000000000000000000 ) ) ;
#10 = CARTESIAN_POINT ( 'NONE',  ( 3.142333204958819625E-15, 11.00000000000000000, 0.9000000000000000222 ) ) ;
#11 = CARTESIAN_POINT ( 'NONE',  ( 3.142333204958820020E-15, 40.00000000000000000, 0.9000000000000000222 ) ) ;
#12 = CYLINDRICAL_SURFACE ( 'NONE', #153, 40.00000000000000000 ) ;
#13 = AXIS2_PLACEMENT_3D ( 'NONE', #48, #165, #149 ) ;
#14 = ADVANCED_FACE ( 'NONE', ( #128, #50 ), #115, .T. ) ;
#15 = DATE_AND_TIME ( #155, #2 ) ;
#16 = COORDINATED_UNIVERSAL_TIME_OFFSET ( 1, 0, .AHEAD. ) ;
#17 = PERSON_AND_ORGANIZATION_ROLE ( 'classification_officer' ) ;
#18 = CIRCLE ( 'NONE', #139, 40.00000000000000000 ) ;
#19 = PERSON_AND_ORGANIZATION ( #124, #96 ) ;
#20 = ORIENTED_EDGE ( 'NONE', *, *, #147, .T. ) ;
#21 = DIRECTION ( 'NONE',  ( 8.570388252523199546E-31, 1.000000000000000000, 2.439454888092384977E-16 ) ) ;
#22 = DIRECTION ( 'NONE',  ( -3.491481338843133355E-15, 2.449293598294705921E-16, -1.000000000000000000 ) ) ;
#23 = DIRECTION ( 'NONE',  ( 8.551662891793915461E-31, 1.000000000000000000, 2.449293598294705921E-16 ) ) ;
#24 = APPROVAL_DATE_TIME ( #4, #62 ) ;
#25 = EDGE_LOOP ( 'NONE', ( #42 ) ) ;
#26 = CALENDAR_DATE ( 2021, 6, 12 ) ;
#27 = CIRCLE ( 'NONE', #13, 11.00000000000000000 ) ;
#28 = PERSON_AND_ORGANIZATION_ROLE ( 'creator' ) ;
#29 = AXIS2_PLACEMENT_3D ( 'NONE', #37, #169, #52 ) ;
#30 = FACE_OUTER_BOUND ( 'NONE', #47, .T. ) ;
#31 =( LENGTH_UNIT ( ) NAMED_UNIT ( * ) SI_UNIT ( .MILLI., .METRE. ) );
#32 = VERTEX_POINT ( 'NONE', #10 ) ;
#33 = AXIS2_PLACEMENT_3D ( 'NONE', #76, #22, #101 ) ;
#34 = FACE_OUTER_BOUND ( 'NONE', #145, .T. ) ;
#35 = APPROVAL_PERSON_ORGANIZATION ( #93, #7, #108 ) ;
#36 = FACE_BOUND ( 'NONE', #74, .T. ) ;
#37 = CARTESIAN_POINT ( 'NONE',  ( 0.0000000000000000000, 0.0000000000000000000, 0.0000000000000000000 ) ) ;
#38 = CC_DESIGN_DATE_AND_TIME_ASSIGNMENT ( #134, #40, ( #137 ) ) ;
#39 = APPROVAL_DATE_TIME ( #82, #5 ) ;
#40 = DATE_TIME_ROLE ( 'creation_date' ) ;
#41 = APPROVAL_DATE_TIME ( #136, #7 ) ;
#42 = ORIENTED_EDGE ( 'NONE', *, *, #71, .T. ) ;
#43 = DESIGN_CONTEXT ( 'detailed design', #44, 'design' ) ;
#44 = APPLICATION_CONTEXT ( 'configuration controlled 3d designs of mechanical parts and assemblies' ) ;
#45 = CLOSED_SHELL ( 'NONE', ( #14, #90, #117, #79 ) ) ;
#46 = PRODUCT_RELATED_PRODUCT_CATEGORY ( 'detail', '', ( #111 ) ) ;
#47 = EDGE_LOOP ( 'NONE', ( #142 ) ) ;
#48 = CARTESIAN_POINT ( 'NONE',  ( 3.142333204958810553E-15, -2.204364238465228673E-16, 0.8999999999999972466 ) ) ;
#49 =( NAMED_UNIT ( * ) PLANE_ANGLE_UNIT ( ) SI_UNIT ( $, .RADIAN. ) );
#50 = FACE_BOUND ( 'NONE', #55, .T. ) ;
#51 = CC_DESIGN_APPROVAL ( #7, ( #6 ) ) ;
#52 = DIRECTION ( 'NONE',  ( 1.000000000000000000, 0.0000000000000000000, 0.0000000000000000000 ) ) ;
#53 = CALENDAR_DATE ( 2021, 6, 12 ) ;
#54 = COORDINATED_UNIVERSAL_TIME_OFFSET ( 1, 0, .AHEAD. ) ;
#55 = EDGE_LOOP ( 'NONE', ( #70 ) ) ;
#56 = LOCAL_TIME ( 13, 59, 45.00000000000000000, #121 ) ;
#57 = ADVANCED_BREP_SHAPE_REPRESENTATION ( '46466', ( #144, #29 ), #125 ) ;
#58 = EDGE_CURVE ( 'NONE', #127, #127, #67, .T. ) ;
#59 = DIRECTION ( 'NONE',  ( -3.491481338843133355E-15, 2.449293598294705921E-16, -1.000000000000000000 ) ) ;
#60 = FACE_OUTER_BOUND ( 'NONE', #112, .T. ) ;
#61 = FACE_OUTER_BOUND ( 'NONE', #8, .T. ) ;
#62 = APPROVAL ( #89, 'UNSPECIFIED' ) ;
#63 = CC_DESIGN_APPROVAL ( #62, ( #137 ) ) ;
#64 = APPROVAL_ROLE ( '' ) ;
#65 = ORIENTED_EDGE ( 'NONE', *, *, #58, .T. ) ;
#66 = DATE_TIME_ROLE ( 'classification_date' ) ;
#67 = CIRCLE ( 'NONE', #33, 11.00000000000000000 ) ;
#68 = PERSON_AND_ORGANIZATION ( #124, #96 ) ;
#69 = APPROVAL_PERSON_ORGANIZATION ( #78, #62, #133 ) ;
#70 = ORIENTED_EDGE ( 'NONE', *, *, #58, .F. ) ;
#71 = EDGE_CURVE ( 'NONE', #88, #88, #1, .T. ) ;
#72 = PLANE ( 'NONE',  #132 ) ;
#73 = CARTESIAN_POINT ( 'NONE',  ( -3.420665156717566044E-29, 2.399615652258971122E-30, -9.797174393178824474E-15 ) ) ;
#74 = EDGE_LOOP ( 'NONE', ( #85 ) ) ;
#75 = CARTESIAN_POINT ( 'NONE',  ( 0.0000000000000000000, 11.00000000000000000, 0.0000000000000000000 ) ) ;
#76 = CARTESIAN_POINT ( 'NONE',  ( -9.406829180973306482E-30, 6.598943043712170847E-31, -2.694222958124176415E-15 ) ) ;
#77 = CC_DESIGN_APPROVAL ( #5, ( #159 ) ) ;
#78 = PERSON_AND_ORGANIZATION ( #124, #96 ) ;
#79 = ADVANCED_FACE ( 'NONE', ( #61, #60 ), #154, .F. ) ;
#80 = APPLICATION_PROTOCOL_DEFINITION ( 'international standard', 'config_control_design', 1994, #44 ) ;
#81 = PERSON_AND_ORGANIZATION ( #124, #96 ) ;
#82 = DATE_AND_TIME ( #103, #56 ) ;
#83 = AXIS2_PLACEMENT_3D ( 'NONE', #99, #140, #23 ) ;
#84 = CARTESIAN_POINT ( 'NONE',  ( 3.142333204958807398E-15, 11.00000000000000000, 0.8999999999999963585 ) ) ;
#85 = ORIENTED_EDGE ( 'NONE', *, *, #160, .T. ) ;
#86 = DIRECTION ( 'NONE',  ( 8.551662891793915461E-31, 1.000000000000000000, 2.449293598294705921E-16 ) ) ;
#87 = DIRECTION ( 'NONE',  ( 8.551662891793915461E-31, 1.000000000000000000, 2.449293598294705921E-16 ) ) ;
#88 = VERTEX_POINT ( 'NONE', #11 ) ;
#89 = APPROVAL_STATUS ( 'not_yet_approved' ) ;
#90 = ADVANCED_FACE ( 'NONE', ( #116, #34 ), #12, .T. ) ;
#91 = APPROVAL_PERSON_ORGANIZATION ( #106, #5, #64 ) ;
#92 = APPROVAL_STATUS ( 'not_yet_approved' ) ;
#93 = PERSON_AND_ORGANIZATION ( #124, #96 ) ;
#94 = COORDINATED_UNIVERSAL_TIME_OFFSET ( 1, 0, .AHEAD. ) ;
#95 = SHAPE_DEFINITION_REPRESENTATION ( #168, #57 ) ;
#96 = ORGANIZATION ( 'UNSPECIFIED', 'UNSPECIFIED', '' ) ;
#97 = CC_DESIGN_SECURITY_CLASSIFICATION ( #6, ( #159 ) ) ;
#98 = DIRECTION ( 'NONE',  ( 8.551662891793915461E-31, 1.000000000000000000, 2.449293598294705921E-16 ) ) ;
#99 = CARTESIAN_POINT ( 'NONE',  ( -1.239991119310117908E-29, 11.00000000000000000, -3.551475717527324030E-15 ) ) ;
#100 = CC_DESIGN_DATE_AND_TIME_ASSIGNMENT ( #15, #66, ( #6 ) ) ;
#101 = DIRECTION ( 'NONE',  ( 8.551662891793915461E-31, 1.000000000000000000, 2.449293598294705921E-16 ) ) ;
#102 = APPLICATION_PROTOCOL_DEFINITION ( 'international standard', 'config_control_design', 1994, #107 ) ;
#103 = CALENDAR_DATE ( 2021, 6, 12 ) ;
#104 = PERSON_AND_ORGANIZATION_ROLE ( 'design_owner' ) ;
#105 = PERSON_AND_ORGANIZATION_ROLE ( 'creator' ) ;
#106 = PERSON_AND_ORGANIZATION ( #124, #96 ) ;
#107 = APPLICATION_CONTEXT ( 'configuration controlled 3d designs of mechanical parts and assemblies' ) ;
#108 = APPROVAL_ROLE ( '' ) ;
#109 = UNCERTAINTY_MEASURE_WITH_UNIT (LENGTH_MEASURE( 1.000000000000000082E-05 ), #31, 'distance_accuracy_value', 'NONE');
#110 = LOCAL_TIME ( 13, 59, 45.00000000000000000, #143 ) ;
#111 = PRODUCT ( '46466', '46466', '', ( #122 ) ) ;
#112 = EDGE_LOOP ( 'NONE', ( #166 ) ) ;
#113 = DIRECTION ( 'NONE',  ( -3.491481338843133355E-15, 2.449293598294705921E-16, -1.000000000000000000 ) ) ;
#114 = DIRECTION ( 'NONE',  ( -8.551662891793915461E-31, -1.000000000000000000, -2.449293598294705921E-16 ) ) ;
#115 = PLANE ( 'NONE',  #83 ) ;
#116 = FACE_OUTER_BOUND ( 'NONE', #25, .T. ) ;
#117 = ADVANCED_FACE ( 'NONE', ( #36, #30 ), #72, .T. ) ;
#118 = LOCAL_TIME ( 13, 59, 45.00000000000000000, #94 ) ;
#119 = CC_DESIGN_PERSON_AND_ORGANIZATION_ASSIGNMENT ( #156, #105, ( #137 ) ) ;
#120 = PERSON_AND_ORGANIZATION ( #124, #96 ) ;
#121 = COORDINATED_UNIVERSAL_TIME_OFFSET ( 1, 0, .AHEAD. ) ;
#122 = MECHANICAL_CONTEXT ( 'NONE', #107, 'mechanical' ) ;
#123 = AXIS2_PLACEMENT_3D ( 'NONE', #130, #59, #98 ) ;
#124 = PERSON ( 'UNSPECIFIED', 'UNSPECIFIED', 'UNSPECIFIED', ('UNSPECIFIED'), ('UNSPECIFIED'), ('UNSPECIFIED') ) ;
#125 =( GEOMETRIC_REPRESENTATION_CONTEXT ( 3 ) GLOBAL_UNCERTAINTY_ASSIGNED_CONTEXT ( ( #109 ) ) GLOBAL_UNIT_ASSIGNED_CONTEXT ( ( #31, #49, #151 ) ) REPRESENTATION_CONTEXT ( 'NONE', 'WORKASPACE' ) );
#126 = DIRECTION ( 'NONE',  ( -3.491481338843133355E-15, 2.449293598294705921E-16, -1.000000000000000000 ) ) ;
#127 = VERTEX_POINT ( 'NONE', #75 ) ;
#128 = FACE_OUTER_BOUND ( 'NONE', #163, .T. ) ;
#129 = VERTEX_POINT ( 'NONE', #9 ) ;
#130 = CARTESIAN_POINT ( 'NONE',  ( 0.0000000000000000000, 0.0000000000000000000, 0.0000000000000000000 ) ) ;
#131 = CC_DESIGN_PERSON_AND_ORGANIZATION_ASSIGNMENT ( #19, #3, ( #159 ) ) ;
#132 = AXIS2_PLACEMENT_3D ( 'NONE', #84, #141, #114 ) ;
#133 = APPROVAL_ROLE ( '' ) ;
#134 = DATE_AND_TIME ( #53, #110 ) ;
#135 = APPROVAL_STATUS ( 'not_yet_approved' ) ;
#136 = DATE_AND_TIME ( #157, #148 ) ;
#137 = PRODUCT_DEFINITION ( 'UNKNOWN', '', #159, #43 ) ;
#138 = ORIENTED_EDGE ( 'NONE', *, *, #147, .F. ) ;
#139 = AXIS2_PLACEMENT_3D ( 'NONE', #73, #164, #86 ) ;
#140 = DIRECTION ( 'NONE',  ( -3.491481338843133355E-15, 2.449293598294705921E-16, -1.000000000000000000 ) ) ;
#141 = DIRECTION ( 'NONE',  ( 3.491481338843133355E-15, -2.449293598294705921E-16, 1.000000000000000000 ) ) ;
#142 = ORIENTED_EDGE ( 'NONE', *, *, #71, .F. ) ;
#143 = COORDINATED_UNIVERSAL_TIME_OFFSET ( 1, 0, .AHEAD. ) ;
#144 = MANIFOLD_SOLID_BREP ( 'Corps-Déplacer/Copier1', #45 ) ;
#145 = EDGE_LOOP ( 'NONE', ( #138 ) ) ;
#146 = CARTESIAN_POINT ( 'NONE',  ( 0.0000000000000000000, 0.0000000000000000000, 0.0000000000000000000 ) ) ;
#147 = EDGE_CURVE ( 'NONE', #129, #129, #18, .T. ) ;
#148 = LOCAL_TIME ( 13, 59, 45.00000000000000000, #16 ) ;
#149 = DIRECTION ( 'NONE',  ( 8.404057939144302541E-31, 1.000000000000000000, 2.464095846557964399E-16 ) ) ;
#150 = CC_DESIGN_PERSON_AND_ORGANIZATION_ASSIGNMENT ( #68, #17, ( #6 ) ) ;
#151 =( NAMED_UNIT ( * ) SI_UNIT ( $, .STERADIAN. ) SOLID_ANGLE_UNIT ( ) );
#152 = CARTESIAN_POINT ( 'NONE',  ( 3.142333204958785704E-15, -2.204364238465211417E-16, 0.8999999999999902522 ) ) ;
#153 = AXIS2_PLACEMENT_3D ( 'NONE', #146, #113, #87 ) ;
#154 = CYLINDRICAL_SURFACE ( 'NONE', #123, 11.00000000000000000 ) ;
#155 = CALENDAR_DATE ( 2021, 6, 12 ) ;
#156 = PERSON_AND_ORGANIZATION ( #124, #96 ) ;
#157 = CALENDAR_DATE ( 2021, 6, 12 ) ;
#158 = SECURITY_CLASSIFICATION_LEVEL ( 'unclassified' ) ;
#159 = PRODUCT_DEFINITION_FORMATION_WITH_SPECIFIED_SOURCE ( 'ANY', '', #111, .NOT_KNOWN. ) ;
#160 = EDGE_CURVE ( 'NONE', #32, #32, #27, .T. ) ;
#161 = AXIS2_PLACEMENT_3D ( 'NONE', #152, #126, #21 ) ;
#162 = CC_DESIGN_PERSON_AND_ORGANIZATION_ASSIGNMENT ( #81, #104, ( #111 ) ) ;
#163 = EDGE_LOOP ( 'NONE', ( #20 ) ) ;
#164 = DIRECTION ( 'NONE',  ( -3.491481338843133355E-15, 2.449293598294705921E-16, -1.000000000000000000 ) ) ;
#165 = DIRECTION ( 'NONE',  ( -3.491481338843133355E-15, 2.449293598294705921E-16, -1.000000000000000000 ) ) ;
#166 = ORIENTED_EDGE ( 'NONE', *, *, #160, .F. ) ;
#167 = CC_DESIGN_PERSON_AND_ORGANIZATION_ASSIGNMENT ( #120, #28, ( #159 ) ) ;
#168 = PRODUCT_DEFINITION_SHAPE ( 'NONE', 'NONE',  #137 ) ;
#169 = DIRECTION ( 'NONE',  ( 0.0000000000000000000, 0.0000000000000000000, 1.000000000000000000 ) ) ;
ENDSEC;
END-ISO-10303-21;
