ISO-10303-21;
HEADER;
FILE_DESCRIPTION (( 'STEP AP203' ),
    '1' );
FILE_NAME ('46440.step',
    '2021-11-01T09:45:36',
    ( '' ),
    ( '' ),
    'SwSTEP 2.0',
    'SolidWorks 2019',
    '' );
FILE_SCHEMA (( 'CONFIG_CONTROL_DESIGN' ));
ENDSEC;

DATA;
#1 = AXIS2_PLACEMENT_3D ( 'NONE', #178, #92, #159 ) ;
#2 = EDGE_LOOP ( 'NONE', ( #170 ) ) ;
#3 = CYLINDRICAL_SURFACE ( 'NONE', #1, 1.500000000000000444 ) ;
#4 = FACE_OUTER_BOUND ( 'NONE', #212, .T. ) ;
#5 = DIRECTION ( 'NONE',  ( 3.491481338843133355E-15, -1.227517819005651059E-16, 1.000000000000000000 ) ) ;
#6 = PRODUCT_DEFINITION_SHAPE ( 'NONE', 'NONE',  #50 ) ;
#7 = FACE_OUTER_BOUND ( 'NONE', #223, .T. ) ;
#8 = DIRECTION ( 'NONE',  ( -3.491481338843133355E-15, 1.227517819005651059E-16, -1.000000000000000000 ) ) ;
#9 = PERSON_AND_ORGANIZATION_ROLE ( 'design_owner' ) ;
#10 = DATE_TIME_ROLE ( 'classification_date' ) ;
#11 = DATE_AND_TIME ( #134, #220 ) ;
#12 = AXIS2_PLACEMENT_3D ( 'NONE', #21, #19, #148 ) ;
#13 = CARTESIAN_POINT ( 'NONE',  ( 1.969195475107527212E-13, 2.999999999999995559, 56.39999999999999858 ) ) ;
#14 = ORIENTED_EDGE ( 'NONE', *, *, #190, .F. ) ;
#15 = ORIENTED_EDGE ( 'NONE', *, *, #174, .F. ) ;
#16 = EDGE_LOOP ( 'NONE', ( #88 ) ) ;
#17 = APPROVAL_PERSON_ORGANIZATION ( #131, #155, #186 ) ;
#18 = VERTEX_POINT ( 'NONE', #111 ) ;
#19 = DIRECTION ( 'NONE',  ( -3.491481338843133355E-15, 1.224646799147353207E-16, -1.000000000000000000 ) ) ;
#20 = CC_DESIGN_PERSON_AND_ORGANIZATION_ASSIGNMENT ( #80, #9, ( #51 ) ) ;
#21 = CARTESIAN_POINT ( 'NONE',  ( 1.990144363140586139E-13, 1.799711739194220919E-32, 57.00000000000000000 ) ) ;
#22 = CONICAL_SURFACE ( 'NONE', #35, 2.400000000000003020, 0.7853981633974453924 ) ;
#23 = CC_DESIGN_DATE_AND_TIME_ASSIGNMENT ( #165, #10, ( #135 ) ) ;
#24 = CARTESIAN_POINT ( 'NONE',  ( 2.444036937190193349E-14, 2.249639673992782580E-32, 7.000000000000000000 ) ) ;
#25 = MECHANICAL_CONTEXT ( 'NONE', #194, 'mechanical' ) ;
#26 = AXIS2_PLACEMENT_3D ( 'NONE', #218, #41, #175 ) ;
#27 = ADVANCED_BREP_SHAPE_REPRESENTATION ( '46440', ( #187, #181, #211 ), #168 ) ;
#28 = PERSON_AND_ORGANIZATION_ROLE ( 'design_supplier' ) ;
#29 = PERSON_AND_ORGANIZATION ( #44, #103 ) ;
#30 = ORIENTED_EDGE ( 'NONE', *, *, #172, .T. ) ;
#31 = ORIENTED_EDGE ( 'NONE', *, *, #161, .T. ) ;
#32 = ADVANCED_FACE ( 'NONE', ( #221, #105 ), #22, .T. ) ;
#33 = CC_DESIGN_DATE_AND_TIME_ASSIGNMENT ( #137, #45, ( #50 ) ) ;
#34 = CIRCLE ( 'NONE', #89, 1.500000000000000444 ) ;
#35 = AXIS2_PLACEMENT_3D ( 'NONE', #68, #208, #120 ) ;
#36 = DIRECTION ( 'NONE',  ( 0.0000000000000000000, 1.000000000000000000, 0.0000000000000000000 ) ) ;
#37 = DIRECTION ( 'NONE',  ( -3.491481338843133355E-15, 1.224646799147353207E-16, -1.000000000000000000 ) ) ;
#38 = CARTESIAN_POINT ( 'NONE',  ( 4.072355432398989404E-14, -5.724761996143286443E-16, 11.66368952654440427 ) ) ;
#39 = PRODUCT_RELATED_PRODUCT_CATEGORY ( 'detail', '', ( #51 ) ) ;
#40 = CARTESIAN_POINT ( 'NONE',  ( 0.0000000000000000000, 0.0000000000000000000, 0.0000000000000000000 ) ) ;
#41 = DIRECTION ( 'NONE',  ( 3.491481338843133355E-15, -1.224646799147353207E-16, 1.000000000000000000 ) ) ;
#42 = DATE_AND_TIME ( #200, #119 ) ;
#43 = APPROVAL_PERSON_ORGANIZATION ( #117, #78, #132 ) ;
#44 = PERSON ( 'UNSPECIFIED', 'UNSPECIFIED', 'UNSPECIFIED', ('UNSPECIFIED'), ('UNSPECIFIED'), ('UNSPECIFIED') ) ;
#45 = DATE_TIME_ROLE ( 'creation_date' ) ;
#46 = AXIS2_PLACEMENT_3D ( 'NONE', #40, #110, #56 ) ;
#47 = LOCAL_TIME ( 10, 45, 36.00000000000000000, #199 ) ;
#48 = ORIENTED_EDGE ( 'NONE', *, *, #172, .F. ) ;
#49 = ORIENTED_EDGE ( 'NONE', *, *, #190, .T. ) ;
#50 = PRODUCT_DEFINITION ( 'UNKNOWN', '', #53, #189 ) ;
#51 = PRODUCT ( '46440', '46440', '', ( #25 ) ) ;
#52 = CARTESIAN_POINT ( 'NONE',  ( 2.444036937190193033E-14, -8.592624733039555931E-16, 6.999999999999999112 ) ) ;
#53 = PRODUCT_DEFINITION_FORMATION_WITH_SPECIFIED_SOURCE ( 'ANY', '', #51, .NOT_KNOWN. ) ;
#54 = CYLINDRICAL_SURFACE ( 'NONE', #46, 2.999999999999999556 ) ;
#55 = ADVANCED_FACE ( 'NONE', ( #69, #73 ), #140, .F. ) ;
#56 = DIRECTION ( 'NONE',  ( 4.275831445896959482E-31, 1.000000000000000000, 1.224646799147353207E-16 ) ) ;
#57 = DIRECTION ( 'NONE',  ( 0.0000000000000000000, -1.000000000000000000, 0.0000000000000000000 ) ) ;
#58 = CARTESIAN_POINT ( 'NONE',  ( -6.428783337233482547E-31, 5.291728677854390577E-35, -1.841276728508477327E-16 ) ) ;
#59 = CC_DESIGN_APPROVAL ( #78, ( #53 ) ) ;
#60 = DIRECTION ( 'NONE',  ( 1.000000000000000000, 0.0000000000000000000, 0.0000000000000000000 ) ) ;
#61 = COORDINATED_UNIVERSAL_TIME_OFFSET ( 1, 0, .AHEAD. ) ;
#62 = APPLICATION_PROTOCOL_DEFINITION ( 'international standard', 'config_control_design', 1994, #210 ) ;
#63 = ADVANCED_FACE ( 'NONE', ( #112, #177 ), #54, .T. ) ;
#64 = PERSON_AND_ORGANIZATION_ROLE ( 'creator' ) ;
#65 = UNCERTAINTY_MEASURE_WITH_UNIT (LENGTH_MEASURE( 1.000000000000000082E-05 ), #203, 'distance_accuracy_value', 'NONE');
#66 = PERSON_AND_ORGANIZATION ( #44, #103 ) ;
#67 = AXIS2_PLACEMENT_3D ( 'NONE', #162, #77, #130 ) ;
#68 = CARTESIAN_POINT ( 'NONE',  ( 1.990144363140586139E-13, -6.980486755139912911E-15, 57.00000000000000000 ) ) ;
#69 = FACE_OUTER_BOUND ( 'NONE', #156, .T. ) ;
#70 = AXIS2_PLACEMENT_3D ( 'NONE', #24, #145, #213 ) ;
#71 = APPROVAL_STATUS ( 'not_yet_approved' ) ;
#72 = ORIENTED_EDGE ( 'NONE', *, *, #141, .F. ) ;
#73 = FACE_OUTER_BOUND ( 'NONE', #206, .T. ) ;
#74 = FACE_OUTER_BOUND ( 'NONE', #191, .T. ) ;
#75 = DIRECTION ( 'NONE',  ( 3.491481338843133355E-15, -1.227517819005651059E-16, 1.000000000000000000 ) ) ;
#76 = VERTEX_POINT ( 'NONE', #151 ) ;
#77 = DIRECTION ( 'NONE',  ( -3.491481338843133355E-15, 1.224646799147353207E-16, -1.000000000000000000 ) ) ;
#78 = APPROVAL ( #184, 'UNSPECIFIED' ) ;
#79 =( NAMED_UNIT ( * ) SI_UNIT ( $, .STERADIAN. ) SOLID_ANGLE_UNIT ( ) );
#80 = PERSON_AND_ORGANIZATION ( #44, #103 ) ;
#81 = CC_DESIGN_PERSON_AND_ORGANIZATION_ASSIGNMENT ( #29, #153, ( #50 ) ) ;
#82 = AXIS2_PLACEMENT_3D ( 'NONE', #38, #8, #149 ) ;
#83 = APPLICATION_PROTOCOL_DEFINITION ( 'international standard', 'config_control_design', 1994, #194 ) ;
#84 = ORIENTED_EDGE ( 'NONE', *, *, #174, .T. ) ;
#85 = EDGE_LOOP ( 'NONE', ( #171 ) ) ;
#86 = CIRCLE ( 'NONE', #122, 1.500000000000000444 ) ;
#87 = SHAPE_DEFINITION_REPRESENTATION ( #6, #27 ) ;
#88 = ORIENTED_EDGE ( 'NONE', *, *, #141, .T. ) ;
#89 = AXIS2_PLACEMENT_3D ( 'NONE', #52, #75, #57 ) ;
#90 = VERTEX_POINT ( 'NONE', #195 ) ;
#91 = PLANE ( 'NONE',  #133 ) ;
#92 = DIRECTION ( 'NONE',  ( 3.491481338843133355E-15, -1.227517819005651059E-16, 1.000000000000000000 ) ) ;
#93 = ADVANCED_FACE ( 'NONE', ( #95 ), #113, .F. ) ;
#94 = AXIS2_PLACEMENT_3D ( 'NONE', #58, #5, #126 ) ;
#95 = FACE_OUTER_BOUND ( 'NONE', #85, .T. ) ;
#96 = FACE_OUTER_BOUND ( 'NONE', #2, .T. ) ;
#97 = ADVANCED_FACE ( 'NONE', ( #74 ), #91, .F. ) ;
#98 = SECURITY_CLASSIFICATION_LEVEL ( 'unclassified' ) ;
#99 = COORDINATED_UNIVERSAL_TIME_OFFSET ( 1, 0, .AHEAD. ) ;
#100 = CALENDAR_DATE ( 2021, 1, 11 ) ;
#101 = PERSON_AND_ORGANIZATION ( #44, #103 ) ;
#102 = COORDINATED_UNIVERSAL_TIME_OFFSET ( 1, 0, .AHEAD. ) ;
#103 = ORGANIZATION ( 'UNSPECIFIED', 'UNSPECIFIED', '' ) ;
#104 = ORIENTED_EDGE ( 'NONE', *, *, #167, .T. ) ;
#105 = FACE_BOUND ( 'NONE', #142, .T. ) ;
#106 = CC_DESIGN_APPROVAL ( #116, ( #135 ) ) ;
#107 = APPROVAL_DATE_TIME ( #222, #116 ) ;
#108 = EDGE_LOOP ( 'NONE', ( #14 ) ) ;
#109 = EDGE_LOOP ( 'NONE', ( #49 ) ) ;
#110 = DIRECTION ( 'NONE',  ( -3.491481338843133355E-15, 1.224646799147353207E-16, -1.000000000000000000 ) ) ;
#111 = CARTESIAN_POINT ( 'NONE',  ( -1.285756667446696334E-30, -1.500000000000000444, -3.682553457016954655E-16 ) ) ;
#112 = FACE_OUTER_BOUND ( 'NONE', #109, .T. ) ;
#113 = PLANE ( 'NONE',  #12 ) ;
#114 = APPROVAL_STATUS ( 'not_yet_approved' ) ;
#115 = VERTEX_POINT ( 'NONE', #136 ) ;
#116 = APPROVAL ( #71, 'UNSPECIFIED' ) ;
#117 = PERSON_AND_ORGANIZATION ( #44, #103 ) ;
#118 = CARTESIAN_POINT ( 'NONE',  ( 0.0000000000000000000, 0.0000000000000000000, 0.0000000000000000000 ) ) ;
#119 = LOCAL_TIME ( 10, 45, 36.00000000000000000, #102 ) ;
#120 = DIRECTION ( 'NONE',  ( 0.0000000000000000000, 1.000000000000000000, 0.0000000000000000000 ) ) ;
#121 = CC_DESIGN_PERSON_AND_ORGANIZATION_ASSIGNMENT ( #101, #64, ( #53 ) ) ;
#122 = AXIS2_PLACEMENT_3D ( 'NONE', #146, #216, #193 ) ;
#123 = COORDINATED_UNIVERSAL_TIME_OFFSET ( 1, 0, .AHEAD. ) ;
#124 = CARTESIAN_POINT ( 'NONE',  ( 1.969195475107527212E-13, -6.907007947191071980E-15, 56.39999999999999858 ) ) ;
#125 = CC_DESIGN_APPROVAL ( #155, ( #50 ) ) ;
#126 = DIRECTION ( 'NONE',  ( -4.285855558155652404E-31, -1.000000000000000000, -1.227517819005651305E-16 ) ) ;
#127 = VERTEX_POINT ( 'NONE', #179 ) ;
#128 = PLANE ( 'NONE',  #26 ) ;
#129 = ADVANCED_FACE ( 'NONE', ( #158, #96 ), #3, .T. ) ;
#130 = DIRECTION ( 'NONE',  ( 0.0000000000000000000, 1.000000000000000000, 0.0000000000000000000 ) ) ;
#131 = PERSON_AND_ORGANIZATION ( #44, #103 ) ;
#132 = APPROVAL_ROLE ( '' ) ;
#133 = AXIS2_PLACEMENT_3D ( 'NONE', #217, #180, #198 ) ;
#134 = CALENDAR_DATE ( 2021, 1, 11 ) ;
#135 = SECURITY_CLASSIFICATION ( '', '', #98 ) ;
#136 = CARTESIAN_POINT ( 'NONE',  ( 4.072355432398989404E-14, 2.999999999999999112, 11.66368952654440427 ) ) ;
#137 = DATE_AND_TIME ( #219, #154 ) ;
#138 = ADVANCED_FACE ( 'NONE', ( #4 ), #163, .T. ) ;
#139 = CIRCLE ( 'NONE', #67, 2.400000000000003020 ) ;
#140 = TOROIDAL_SURFACE ( 'NONE', #214, 9.500000000000000000, 8.000000000000000000 ) ;
#141 = EDGE_CURVE ( 'NONE', #18, #18, #183, .T. ) ;
#142 = EDGE_LOOP ( 'NONE', ( #31 ) ) ;
#143 = CIRCLE ( 'NONE', #197, 3.000000000000002665 ) ;
#144 = CC_DESIGN_PERSON_AND_ORGANIZATION_ASSIGNMENT ( #164, #150, ( #135 ) ) ;
#145 = DIRECTION ( 'NONE',  ( 3.491481338843133355E-15, -1.224646799147353207E-16, 1.000000000000000000 ) ) ;
#146 = CARTESIAN_POINT ( 'NONE',  ( 2.444036937190193033E-14, -8.592624733039555931E-16, 6.999999999999999112 ) ) ;
#147 = CC_DESIGN_PERSON_AND_ORGANIZATION_ASSIGNMENT ( #204, #28, ( #53 ) ) ;
#148 = DIRECTION ( 'NONE',  ( 4.275831445896958607E-31, 1.000000000000000000, 1.224646799147353207E-16 ) ) ;
#149 = DIRECTION ( 'NONE',  ( 0.0000000000000000000, 1.000000000000000000, 0.0000000000000000000 ) ) ;
#150 = PERSON_AND_ORGANIZATION_ROLE ( 'classification_officer' ) ;
#151 = CARTESIAN_POINT ( 'NONE',  ( 2.444036937190193033E-14, -1.500000000000001332, 6.999999999999999112 ) ) ;
#152 = CIRCLE ( 'NONE', #82, 2.999999999999999556 ) ;
#153 = PERSON_AND_ORGANIZATION_ROLE ( 'creator' ) ;
#154 = LOCAL_TIME ( 10, 45, 36.00000000000000000, #99 ) ;
#155 = APPROVAL ( #114, 'UNSPECIFIED' ) ;
#156 = EDGE_LOOP ( 'NONE', ( #30 ) ) ;
#157 = APPROVAL_PERSON_ORGANIZATION ( #66, #116, #173 ) ;
#158 = FACE_OUTER_BOUND ( 'NONE', #16, .T. ) ;
#159 = DIRECTION ( 'NONE',  ( -4.285855558155652404E-31, -1.000000000000000000, -1.227517819005651305E-16 ) ) ;
#160 = DIRECTION ( 'NONE',  ( -4.346553373934532134E-31, -1.000000000000000000, -1.227517819005651059E-16 ) ) ;
#161 = EDGE_CURVE ( 'NONE', #127, #127, #139, .T. ) ;
#162 = CARTESIAN_POINT ( 'NONE',  ( 1.990144363140586139E-13, -6.980486755139912911E-15, 57.00000000000000000 ) ) ;
#163 = PLANE ( 'NONE',  #70 ) ;
#164 = PERSON_AND_ORGANIZATION ( #44, #103 ) ;
#165 = DATE_AND_TIME ( #100, #47 ) ;
#166 = DIRECTION ( 'NONE',  ( 0.0000000000000000000, 0.0000000000000000000, 1.000000000000000000 ) ) ;
#167 = EDGE_CURVE ( 'NONE', #90, #90, #34, .T. ) ;
#168 =( GEOMETRIC_REPRESENTATION_CONTEXT ( 3 ) GLOBAL_UNCERTAINTY_ASSIGNED_CONTEXT ( ( #65 ) ) GLOBAL_UNIT_ASSIGNED_CONTEXT ( ( #203, #182, #79 ) ) REPRESENTATION_CONTEXT ( 'NONE', 'WORKASPACE' ) );
#169 = APPROVAL_DATE_TIME ( #42, #78 ) ;
#170 = ORIENTED_EDGE ( 'NONE', *, *, #167, .F. ) ;
#171 = ORIENTED_EDGE ( 'NONE', *, *, #161, .F. ) ;
#172 = EDGE_CURVE ( 'NONE', #76, #76, #86, .T. ) ;
#173 = APPROVAL_ROLE ( '' ) ;
#174 = EDGE_CURVE ( 'NONE', #115, #115, #152, .T. ) ;
#175 = DIRECTION ( 'NONE',  ( -4.275831445896958607E-31, -1.000000000000000000, -1.224646799147353207E-16 ) ) ;
#176 = LOCAL_TIME ( 10, 45, 36.00000000000000000, #123 ) ;
#177 = FACE_OUTER_BOUND ( 'NONE', #209, .T. ) ;
#178 = CARTESIAN_POINT ( 'NONE',  ( -6.413731847436034514E-31, 0.0000000000000000000, -1.836965810494968570E-16 ) ) ;
#179 = CARTESIAN_POINT ( 'NONE',  ( 1.990144363140586139E-13, 2.399999999999995914, 57.00000000000000000 ) ) ;
#180 = DIRECTION ( 'NONE',  ( 3.491481338843133355E-15, -1.224646799147353207E-16, 1.000000000000000000 ) ) ;
#181 = MANIFOLD_SOLID_BREP ( 'Corps-Déplacer/Copier1[2]', #205 ) ;
#182 =( NAMED_UNIT ( * ) PLANE_ANGLE_UNIT ( ) SI_UNIT ( $, .RADIAN. ) );
#183 = CIRCLE ( 'NONE', #94, 1.500000000000000444 ) ;
#184 = APPROVAL_STATUS ( 'not_yet_approved' ) ;
#185 = APPROVAL_DATE_TIME ( #11, #155 ) ;
#186 = APPROVAL_ROLE ( '' ) ;
#187 = MANIFOLD_SOLID_BREP ( 'Corps-Déplacer/Copier1[1]', #201 ) ;
#188 = CC_DESIGN_SECURITY_CLASSIFICATION ( #135, ( #53 ) ) ;
#189 = DESIGN_CONTEXT ( 'detailed design', #210, 'design' ) ;
#190 = EDGE_CURVE ( 'NONE', #202, #202, #143, .T. ) ;
#191 = EDGE_LOOP ( 'NONE', ( #48 ) ) ;
#192 = DIRECTION ( 'NONE',  ( 3.491481338843133355E-15, -1.227517819005651059E-16, 1.000000000000000000 ) ) ;
#193 = DIRECTION ( 'NONE',  ( 0.0000000000000000000, -1.000000000000000000, 0.0000000000000000000 ) ) ;
#194 = APPLICATION_CONTEXT ( 'configuration controlled 3d designs of mechanical parts and assemblies' ) ;
#195 = CARTESIAN_POINT ( 'NONE',  ( 2.444036937190193033E-14, -1.500000000000001332, 6.999999999999999112 ) ) ;
#196 = CARTESIAN_POINT ( 'NONE',  ( 2.444036937190193033E-14, 0.0000000000000000000, 6.999999999999999112 ) ) ;
#197 = AXIS2_PLACEMENT_3D ( 'NONE', #124, #37, #36 ) ;
#198 = DIRECTION ( 'NONE',  ( -4.275831445896958607E-31, -1.000000000000000000, -1.224646799147353207E-16 ) ) ;
#199 = COORDINATED_UNIVERSAL_TIME_OFFSET ( 1, 0, .AHEAD. ) ;
#200 = CALENDAR_DATE ( 2021, 1, 11 ) ;
#201 = CLOSED_SHELL ( 'NONE', ( #63, #32, #93, #55, #97 ) ) ;
#202 = VERTEX_POINT ( 'NONE', #13 ) ;
#203 =( LENGTH_UNIT ( ) NAMED_UNIT ( * ) SI_UNIT ( .MILLI., .METRE. ) );
#204 = PERSON_AND_ORGANIZATION ( #44, #103 ) ;
#205 = CLOSED_SHELL ( 'NONE', ( #138, #129, #215 ) ) ;
#206 = EDGE_LOOP ( 'NONE', ( #84 ) ) ;
#207 = CALENDAR_DATE ( 2021, 1, 11 ) ;
#208 = DIRECTION ( 'NONE',  ( -3.491481338843133355E-15, 1.224646799147353207E-16, -1.000000000000000000 ) ) ;
#209 = EDGE_LOOP ( 'NONE', ( #15 ) ) ;
#210 = APPLICATION_CONTEXT ( 'configuration controlled 3d designs of mechanical parts and assemblies' ) ;
#211 = AXIS2_PLACEMENT_3D ( 'NONE', #118, #166, #60 ) ;
#212 = EDGE_LOOP ( 'NONE', ( #104 ) ) ;
#213 = DIRECTION ( 'NONE',  ( -4.275831445896958607E-31, -1.000000000000000000, -1.224646799147353207E-16 ) ) ;
#214 = AXIS2_PLACEMENT_3D ( 'NONE', #196, #192, #160 ) ;
#215 = ADVANCED_FACE ( 'NONE', ( #7 ), #128, .F. ) ;
#216 = DIRECTION ( 'NONE',  ( 3.491481338843133355E-15, -1.227517819005651059E-16, 1.000000000000000000 ) ) ;
#217 = CARTESIAN_POINT ( 'NONE',  ( 2.444036937190193349E-14, 2.249639673992782580E-32, 7.000000000000000000 ) ) ;
#218 = CARTESIAN_POINT ( 'NONE',  ( -3.206816838010677856E-31, 1.124799933034399755E-32, -9.184688465421452921E-17 ) ) ;
#219 = CALENDAR_DATE ( 2021, 1, 11 ) ;
#220 = LOCAL_TIME ( 10, 45, 36.00000000000000000, #61 ) ;
#221 = FACE_OUTER_BOUND ( 'NONE', #108, .T. ) ;
#222 = DATE_AND_TIME ( #207, #176 ) ;
#223 = EDGE_LOOP ( 'NONE', ( #72 ) ) ;
ENDSEC;
END-ISO-10303-21;
