ISO-10303-21;
HEADER;
FILE_DESCRIPTION (( 'STEP AP203' ),
    '1' );
FILE_NAME ('464.step',
    '2021-10-07T13:48:15',
    ( '' ),
    ( '' ),
    'SwSTEP 2.0',
    'SolidWorks 2019',
    '' );
FILE_SCHEMA (( 'CONFIG_CONTROL_DESIGN' ));
ENDSEC;

DATA;
#1 = DIRECTION ( 'NONE',  ( 4.279844320860554674E-31, 1.000000000000000000, 1.204669080539457972E-16 ) ) ;
#2 = DIRECTION ( 'NONE',  ( -3.491481338843133355E-15, 1.224646799147353207E-16, -1.000000000000000000 ) ) ;
#3 = CARTESIAN_POINT ( 'NONE',  ( 4.189777606611760026E-14, 0.8999999999999936939, 12.00000000000000000 ) ) ;
#4 = FACE_OUTER_BOUND ( 'NONE', #98, .T. ) ;
#5 = DIRECTION ( 'NONE',  ( 0.0000000000000000000, -1.000000000000000000, 0.0000000000000000000 ) ) ;
#6 = AXIS2_PLACEMENT_3D ( 'NONE', #128, #71, #50 ) ;
#7 = LOCAL_TIME ( 15, 48, 15.00000000000000000, #35 ) ;
#8 = PERSON_AND_ORGANIZATION_ROLE ( 'creator' ) ;
#9 =( NAMED_UNIT ( * ) SI_UNIT ( $, .STERADIAN. ) SOLID_ANGLE_UNIT ( ) );
#10 = ADVANCED_FACE ( 'NONE', ( #189 ), #219, .F. ) ;
#11 = PERSON_AND_ORGANIZATION_ROLE ( 'creator' ) ;
#12 = APPROVAL ( #181, 'UNSPECIFIED' ) ;
#13 = AXIS2_PLACEMENT_3D ( 'NONE', #158, #180, #22 ) ;
#14 = APPROVAL_DATE_TIME ( #202, #170 ) ;
#15 = EDGE_LOOP ( 'NONE', ( #27 ) ) ;
#16 = ORIENTED_EDGE ( 'NONE', *, *, #45, .F. ) ;
#17 = CARTESIAN_POINT ( 'NONE',  ( 1.888104274722421219E-15, -6.622578304432216065E-17, 0.5407745571248062655 ) ) ;
#18 = FACE_BOUND ( 'NONE', #186, .T. ) ;
#19 = DIRECTION ( 'NONE',  ( 0.0000000000000000000, 1.000000000000000000, 0.0000000000000000000 ) ) ;
#20 = CONICAL_SURFACE ( 'NONE', #31, 0.9999999999999967804, 0.5235987755982913772 ) ;
#21 = DIRECTION ( 'NONE',  ( -3.491481338843133355E-15, 1.224646799147353207E-16, -1.000000000000000000 ) ) ;
#22 = DIRECTION ( 'NONE',  ( 4.275831445896958607E-31, 1.000000000000000000, 1.224646799147353207E-16 ) ) ;
#23 = COORDINATED_UNIVERSAL_TIME_OFFSET ( 1, 0, .AHEAD. ) ;
#24 = APPROVAL_DATE_TIME ( #112, #120 ) ;
#25 = SECURITY_CLASSIFICATION_LEVEL ( 'unclassified' ) ;
#26 = AXIS2_PLACEMENT_3D ( 'NONE', #86, #21, #144 ) ;
#27 = ORIENTED_EDGE ( 'NONE', *, *, #111, .T. ) ;
#28 = CIRCLE ( 'NONE', #145, 0.8999999999999952482 ) ;
#29 = CARTESIAN_POINT ( 'NONE',  ( 1.326762908760390423E-13, -4.653657836759941941E-15, 38.00000000000000000 ) ) ;
#30 = DIRECTION ( 'NONE',  ( 4.275831445896958607E-31, 1.000000000000000000, 1.224646799147353207E-16 ) ) ;
#31 = AXIS2_PLACEMENT_3D ( 'NONE', #69, #157, #5 ) ;
#32 = DIRECTION ( 'NONE',  ( 3.491481338843133355E-15, -1.224646799147353207E-16, 1.000000000000000000 ) ) ;
#33 = DIRECTION ( 'NONE',  ( 1.000000000000000000, 0.0000000000000000000, 0.0000000000000000000 ) ) ;
#34 = APPROVAL_STATUS ( 'not_yet_approved' ) ;
#35 = COORDINATED_UNIVERSAL_TIME_OFFSET ( 1, 0, .AHEAD. ) ;
#36 = ADVANCED_FACE ( 'NONE', ( #203 ), #172, .T. ) ;
#37 = APPROVAL_ROLE ( '' ) ;
#38 = APPROVAL_STATUS ( 'not_yet_approved' ) ;
#39 = UNCERTAINTY_MEASURE_WITH_UNIT (LENGTH_MEASURE( 1.000000000000000082E-05 ), #213, 'distance_accuracy_value', 'NONE');
#40 = CIRCLE ( 'NONE', #6, 0.9999999999999967804 ) ;
#41 = AXIS2_PLACEMENT_3D ( 'NONE', #205, #123, #104 ) ;
#42 = ADVANCED_FACE ( 'NONE', ( #83 ), #117, .T. ) ;
#43 = EDGE_LOOP ( 'NONE', ( #82 ) ) ;
#44 = ORIENTED_EDGE ( 'NONE', *, *, #138, .T. ) ;
#45 = EDGE_CURVE ( 'NONE', #160, #160, #28, .T. ) ;
#46 = ORGANIZATION ( 'UNSPECIFIED', 'UNSPECIFIED', '' ) ;
#47 = VERTEX_POINT ( 'NONE', #142 ) ;
#48 = VERTEX_POINT ( 'NONE', #195 ) ;
#49 = FACE_BOUND ( 'NONE', #43, .T. ) ;
#50 = DIRECTION ( 'NONE',  ( 0.0000000000000000000, 1.000000000000000000, 0.0000000000000000000 ) ) ;
#51 = AXIS2_PLACEMENT_3D ( 'NONE', #29, #2, #163 ) ;
#52 = PERSON ( 'UNSPECIFIED', 'UNSPECIFIED', 'UNSPECIFIED', ('UNSPECIFIED'), ('UNSPECIFIED'), ('UNSPECIFIED') ) ;
#53 = CYLINDRICAL_SURFACE ( 'NONE', #41, 0.9999999999999988898 ) ;
#54 = PRODUCT_DEFINITION_SHAPE ( 'NONE', 'NONE',  #194 ) ;
#55 = PERSON_AND_ORGANIZATION ( #52, #46 ) ;
#56 = APPLICATION_PROTOCOL_DEFINITION ( 'international standard', 'config_control_design', 1994, #116 ) ;
#57 = CC_DESIGN_APPROVAL ( #12, ( #194 ) ) ;
#58 = PERSON_AND_ORGANIZATION ( #52, #46 ) ;
#59 = DATE_AND_TIME ( #168, #164 ) ;
#60 = PERSON_AND_ORGANIZATION_ROLE ( 'classification_officer' ) ;
#61 = APPROVAL_PERSON_ORGANIZATION ( #200, #170, #115 ) ;
#62 = CARTESIAN_POINT ( 'NONE',  ( 4.189777606611760026E-14, 6.748919021978300392E-33, 12.00000000000000000 ) ) ;
#63 = EDGE_CURVE ( 'NONE', #47, #47, #222, .T. ) ;
#64 = ORIENTED_EDGE ( 'NONE', *, *, #45, .T. ) ;
#65 = AXIS2_PLACEMENT_3D ( 'NONE', #192, #191, #89 ) ;
#66 = EDGE_LOOP ( 'NONE', ( #136 ) ) ;
#67 = FACE_OUTER_BOUND ( 'NONE', #79, .T. ) ;
#68 = CARTESIAN_POINT ( 'NONE',  ( 4.189777606611760026E-14, -1.469576158976823947E-15, 12.00000000000000000 ) ) ;
#69 = CARTESIAN_POINT ( 'NONE',  ( 4.250251837337311375E-14, -1.490787663751322662E-15, 12.17320508075689389 ) ) ;
#70 = DIRECTION ( 'NONE',  ( -3.491481338843133355E-15, 1.224646799147353207E-16, -1.000000000000000000 ) ) ;
#71 = DIRECTION ( 'NONE',  ( -3.491481338843133355E-15, 1.224646799147353207E-16, -1.000000000000000000 ) ) ;
#72 = PRODUCT_DEFINITION_FORMATION_WITH_SPECIFIED_SOURCE ( 'ANY', '', #97, .NOT_KNOWN. ) ;
#73 = PERSON_AND_ORGANIZATION ( #52, #46 ) ;
#74 =( NAMED_UNIT ( * ) PLANE_ANGLE_UNIT ( ) SI_UNIT ( $, .RADIAN. ) );
#75 =( GEOMETRIC_REPRESENTATION_CONTEXT ( 3 ) GLOBAL_UNCERTAINTY_ASSIGNED_CONTEXT ( ( #39 ) ) GLOBAL_UNIT_ASSIGNED_CONTEXT ( ( #213, #74, #9 ) ) REPRESENTATION_CONTEXT ( 'NONE', 'WORKASPACE' ) );
#76 = CC_DESIGN_PERSON_AND_ORGANIZATION_ASSIGNMENT ( #147, #11, ( #72 ) ) ;
#77 = DIRECTION ( 'NONE',  ( 3.491481338843133355E-15, -1.224646799147353207E-16, 1.000000000000000000 ) ) ;
#78 = ADVANCED_FACE ( 'NONE', ( #208 ), #109, .F. ) ;
#79 = EDGE_LOOP ( 'NONE', ( #64 ) ) ;
#80 = AXIS2_PLACEMENT_3D ( 'NONE', #177, #70, #88 ) ;
#81 = PRODUCT_RELATED_PRODUCT_CATEGORY ( 'detail', '', ( #97 ) ) ;
#82 = ORIENTED_EDGE ( 'NONE', *, *, #214, .F. ) ;
#83 = FACE_OUTER_BOUND ( 'NONE', #15, .T. ) ;
#84 = CARTESIAN_POINT ( 'NONE',  ( 1.326762908760390423E-13, 5.999039130647368167E-33, 38.00000000000000000 ) ) ;
#85 = CIRCLE ( 'NONE', #209, 0.8999999999999935829 ) ;
#86 = CARTESIAN_POINT ( 'NONE',  ( 1.319779946082704535E-13, -4.629164900776995227E-15, 37.79999999999999716 ) ) ;
#87 = ADVANCED_FACE ( 'NONE', ( #143, #67 ), #108, .T. ) ;
#88 = DIRECTION ( 'NONE',  ( 0.0000000000000000000, 1.000000000000000000, 0.0000000000000000000 ) ) ;
#89 = DIRECTION ( 'NONE',  ( -4.275831445896958607E-31, -1.000000000000000000, -1.224646799147353207E-16 ) ) ;
#90 = DIRECTION ( 'NONE',  ( 0.0000000000000000000, 0.0000000000000000000, 1.000000000000000000 ) ) ;
#91 = ADVANCED_FACE ( 'NONE', ( #178, #18 ), #141, .T. ) ;
#92 = CARTESIAN_POINT ( 'NONE',  ( 1.319779946082704535E-13, 0.9999999999999965583, 37.79999999999999716 ) ) ;
#93 = DATE_AND_TIME ( #165, #204 ) ;
#94 = APPLICATION_PROTOCOL_DEFINITION ( 'international standard', 'config_control_design', 1994, #106 ) ;
#95 = DESIGN_CONTEXT ( 'detailed design', #116, 'design' ) ;
#96 = CC_DESIGN_PERSON_AND_ORGANIZATION_ASSIGNMENT ( #58, #211, ( #97 ) ) ;
#97 = PRODUCT ( '464', '464', '', ( #198 ) ) ;
#98 = EDGE_LOOP ( 'NONE', ( #44 ) ) ;
#99 = AXIS2_PLACEMENT_3D ( 'NONE', #62, #77, #220 ) ;
#100 = CC_DESIGN_DATE_AND_TIME_ASSIGNMENT ( #59, #132, ( #101 ) ) ;
#101 = SECURITY_CLASSIFICATION ( '', '', #25 ) ;
#102 = CARTESIAN_POINT ( 'NONE',  ( 4.189777606611760026E-14, 0.8999999999999936939, 12.00000000000000000 ) ) ;
#103 = DIRECTION ( 'NONE',  ( -3.491481338843133355E-15, 1.224646799147353207E-16, -1.000000000000000000 ) ) ;
#104 = DIRECTION ( 'NONE',  ( 4.275831445896957731E-31, 1.000000000000000000, 1.224646799147353454E-16 ) ) ;
#105 = ADVANCED_FACE ( 'NONE', ( #49, #4 ), #20, .T. ) ;
#106 = APPLICATION_CONTEXT ( 'configuration controlled 3d designs of mechanical parts and assemblies' ) ;
#107 = CIRCLE ( 'NONE', #26, 1.000000000000001110 ) ;
#108 = CYLINDRICAL_SURFACE ( 'NONE', #13, 0.8999999999999943601 ) ;
#109 = PLANE ( 'NONE',  #126 ) ;
#110 = VERTEX_POINT ( 'NONE', #92 ) ;
#111 = EDGE_CURVE ( 'NONE', #207, #207, #85, .T. ) ;
#112 = DATE_AND_TIME ( #217, #201 ) ;
#113 = LOCAL_TIME ( 15, 48, 15.00000000000000000, #183 ) ;
#114 = DATE_TIME_ROLE ( 'creation_date' ) ;
#115 = APPROVAL_ROLE ( '' ) ;
#116 = APPLICATION_CONTEXT ( 'configuration controlled 3d designs of mechanical parts and assemblies' ) ;
#117 = CONICAL_SURFACE ( 'NONE', #155, 0.8999999999999935829, 1.029744258676649649 ) ;
#118 = CALENDAR_DATE ( 2021, 7, 10 ) ;
#119 = EDGE_LOOP ( 'NONE', ( #156 ) ) ;
#120 = APPROVAL ( #34, 'UNSPECIFIED' ) ;
#121 = ORIENTED_EDGE ( 'NONE', *, *, #63, .T. ) ;
#122 = AXIS2_PLACEMENT_3D ( 'NONE', #68, #140, #19 ) ;
#123 = DIRECTION ( 'NONE',  ( -3.491481338843133355E-15, 1.224646799147353207E-16, -1.000000000000000000 ) ) ;
#124 = DIRECTION ( 'NONE',  ( -3.491481338843133355E-15, 1.224646799147353207E-16, -1.000000000000000000 ) ) ;
#125 = FACE_OUTER_BOUND ( 'NONE', #221, .T. ) ;
#126 = AXIS2_PLACEMENT_3D ( 'NONE', #84, #103, #30 ) ;
#127 = CARTESIAN_POINT ( 'NONE',  ( 1.888104274722421219E-15, -6.622578304432216065E-17, 0.5407745571248062655 ) ) ;
#128 = CARTESIAN_POINT ( 'NONE',  ( 4.250251837337311375E-14, -1.490787663751322662E-15, 12.17320508075689389 ) ) ;
#129 = PERSON_AND_ORGANIZATION ( #52, #46 ) ;
#130 = MANIFOLD_SOLID_BREP ( 'Corps-Déplacer/Copier1[2]', #148 ) ;
#131 = CALENDAR_DATE ( 2021, 7, 10 ) ;
#132 = DATE_TIME_ROLE ( 'classification_date' ) ;
#133 = MANIFOLD_SOLID_BREP ( 'Corps-Déplacer/Copier1[1]', #174 ) ;
#134 = ORIENTED_EDGE ( 'NONE', *, *, #214, .T. ) ;
#135 = SHAPE_DEFINITION_REPRESENTATION ( #54, #150 ) ;
#136 = ORIENTED_EDGE ( 'NONE', *, *, #63, .F. ) ;
#137 = APPROVAL_PERSON_ORGANIZATION ( #129, #120, #197 ) ;
#138 = EDGE_CURVE ( 'NONE', #48, #48, #40, .T. ) ;
#139 = ORIENTED_EDGE ( 'NONE', *, *, #111, .F. ) ;
#140 = DIRECTION ( 'NONE',  ( -3.491481338843133355E-15, 1.224646799147353207E-16, -1.000000000000000000 ) ) ;
#141 = CONICAL_SURFACE ( 'NONE', #51, 0.8000000000000010436, 0.7853981633974516097 ) ;
#142 = CARTESIAN_POINT ( 'NONE',  ( 1.326762908760390423E-13, 0.7999999999999963807, 38.00000000000000000 ) ) ;
#143 = FACE_OUTER_BOUND ( 'NONE', #154, .T. ) ;
#144 = DIRECTION ( 'NONE',  ( 0.0000000000000000000, 1.000000000000000000, 0.0000000000000000000 ) ) ;
#145 = AXIS2_PLACEMENT_3D ( 'NONE', #176, #210, #175 ) ;
#146 = DIRECTION ( 'NONE',  ( -4.279844320860554674E-31, -1.000000000000000000, -1.204669080539457972E-16 ) ) ;
#147 = PERSON_AND_ORGANIZATION ( #52, #46 ) ;
#148 = CLOSED_SHELL ( 'NONE', ( #42, #87, #36 ) ) ;
#149 = APPROVAL_DATE_TIME ( #199, #12 ) ;
#150 = ADVANCED_BREP_SHAPE_REPRESENTATION ( '464', ( #133, #130, #206 ), #75 ) ;
#151 = CARTESIAN_POINT ( 'NONE',  ( 0.0000000000000000000, 0.0000000000000000000, 0.0000000000000000000 ) ) ;
#152 = ORIENTED_EDGE ( 'NONE', *, *, #216, .T. ) ;
#153 = CC_DESIGN_APPROVAL ( #120, ( #72 ) ) ;
#154 = EDGE_LOOP ( 'NONE', ( #139 ) ) ;
#155 = AXIS2_PLACEMENT_3D ( 'NONE', #17, #32, #146 ) ;
#156 = ORIENTED_EDGE ( 'NONE', *, *, #216, .F. ) ;
#157 = DIRECTION ( 'NONE',  ( 3.491481338843133355E-15, -1.224646799147353207E-16, 1.000000000000000000 ) ) ;
#158 = CARTESIAN_POINT ( 'NONE',  ( 0.0000000000000000000, 0.0000000000000000000, 0.0000000000000000000 ) ) ;
#159 = APPROVAL_PERSON_ORGANIZATION ( #55, #12, #37 ) ;
#160 = VERTEX_POINT ( 'NONE', #3 ) ;
#161 = CARTESIAN_POINT ( 'NONE',  ( 1.888104274722421613E-15, 0.8999999999999934719, 0.5407745571248063765 ) ) ;
#162 = CC_DESIGN_DATE_AND_TIME_ASSIGNMENT ( #93, #114, ( #194 ) ) ;
#163 = DIRECTION ( 'NONE',  ( 0.0000000000000000000, 1.000000000000000000, 0.0000000000000000000 ) ) ;
#164 = LOCAL_TIME ( 15, 48, 15.00000000000000000, #212 ) ;
#165 = CALENDAR_DATE ( 2021, 7, 10 ) ;
#166 = PERSON_AND_ORGANIZATION ( #52, #46 ) ;
#167 = PERSON_AND_ORGANIZATION ( #52, #46 ) ;
#168 = CALENDAR_DATE ( 2021, 7, 10 ) ;
#169 = CIRCLE ( 'NONE', #122, 0.8999999999999952482 ) ;
#170 = APPROVAL ( #38, 'UNSPECIFIED' ) ;
#171 = EDGE_LOOP ( 'NONE', ( #134 ) ) ;
#172 = PLANE ( 'NONE',  #65 ) ;
#173 = EDGE_LOOP ( 'NONE', ( #16 ) ) ;
#174 = CLOSED_SHELL ( 'NONE', ( #10, #105, #187, #91, #78 ) ) ;
#175 = DIRECTION ( 'NONE',  ( 0.0000000000000000000, 1.000000000000000000, 0.0000000000000000000 ) ) ;
#176 = CARTESIAN_POINT ( 'NONE',  ( 4.189777606611760026E-14, -1.469576158976823947E-15, 12.00000000000000000 ) ) ;
#177 = CARTESIAN_POINT ( 'NONE',  ( 1.326762908760390423E-13, -4.653657836759941941E-15, 38.00000000000000000 ) ) ;
#178 = FACE_OUTER_BOUND ( 'NONE', #119, .T. ) ;
#179 = CC_DESIGN_PERSON_AND_ORGANIZATION_ASSIGNMENT ( #166, #8, ( #194 ) ) ;
#180 = DIRECTION ( 'NONE',  ( -3.491481338843133355E-15, 1.224646799147353207E-16, -1.000000000000000000 ) ) ;
#181 = APPROVAL_STATUS ( 'not_yet_approved' ) ;
#182 = COORDINATED_UNIVERSAL_TIME_OFFSET ( 1, 0, .AHEAD. ) ;
#183 = COORDINATED_UNIVERSAL_TIME_OFFSET ( 1, 0, .AHEAD. ) ;
#184 = CC_DESIGN_PERSON_AND_ORGANIZATION_ASSIGNMENT ( #73, #60, ( #101 ) ) ;
#185 = EDGE_LOOP ( 'NONE', ( #152 ) ) ;
#186 = EDGE_LOOP ( 'NONE', ( #121 ) ) ;
#187 = ADVANCED_FACE ( 'NONE', ( #125, #193 ), #53, .T. ) ;
#188 = ORIENTED_EDGE ( 'NONE', *, *, #138, .F. ) ;
#189 = FACE_OUTER_BOUND ( 'NONE', #171, .T. ) ;
#190 = CC_DESIGN_APPROVAL ( #170, ( #101 ) ) ;
#191 = DIRECTION ( 'NONE',  ( 3.491481338843133355E-15, -1.224646799147353207E-16, 1.000000000000000000 ) ) ;
#192 = CARTESIAN_POINT ( 'NONE',  ( 4.189777606611760026E-14, 6.748919021978300392E-33, 12.00000000000000000 ) ) ;
#193 = FACE_OUTER_BOUND ( 'NONE', #185, .T. ) ;
#194 = PRODUCT_DEFINITION ( 'UNKNOWN', '', #72, #95 ) ;
#195 = CARTESIAN_POINT ( 'NONE',  ( 4.250251837337311375E-14, 0.9999999999999952260, 12.17320508075689389 ) ) ;
#196 = VERTEX_POINT ( 'NONE', #102 ) ;
#197 = APPROVAL_ROLE ( '' ) ;
#198 = MECHANICAL_CONTEXT ( 'NONE', #106, 'mechanical' ) ;
#199 = DATE_AND_TIME ( #131, #7 ) ;
#200 = PERSON_AND_ORGANIZATION ( #52, #46 ) ;
#201 = LOCAL_TIME ( 15, 48, 15.00000000000000000, #182 ) ;
#202 = DATE_AND_TIME ( #118, #113 ) ;
#203 = FACE_OUTER_BOUND ( 'NONE', #173, .T. ) ;
#204 = LOCAL_TIME ( 15, 48, 15.00000000000000000, #23 ) ;
#205 = CARTESIAN_POINT ( 'NONE',  ( 0.0000000000000000000, 0.0000000000000000000, 0.0000000000000000000 ) ) ;
#206 = AXIS2_PLACEMENT_3D ( 'NONE', #151, #90, #33 ) ;
#207 = VERTEX_POINT ( 'NONE', #161 ) ;
#208 = FACE_OUTER_BOUND ( 'NONE', #66, .T. ) ;
#209 = AXIS2_PLACEMENT_3D ( 'NONE', #127, #124, #1 ) ;
#210 = DIRECTION ( 'NONE',  ( -3.491481338843133355E-15, 1.224646799147353207E-16, -1.000000000000000000 ) ) ;
#211 = PERSON_AND_ORGANIZATION_ROLE ( 'design_owner' ) ;
#212 = COORDINATED_UNIVERSAL_TIME_OFFSET ( 1, 0, .AHEAD. ) ;
#213 =( LENGTH_UNIT ( ) NAMED_UNIT ( * ) SI_UNIT ( .MILLI., .METRE. ) );
#214 = EDGE_CURVE ( 'NONE', #196, #196, #169, .T. ) ;
#215 = PERSON_AND_ORGANIZATION_ROLE ( 'design_supplier' ) ;
#216 = EDGE_CURVE ( 'NONE', #110, #110, #107, .T. ) ;
#217 = CALENDAR_DATE ( 2021, 7, 10 ) ;
#218 = CC_DESIGN_SECURITY_CLASSIFICATION ( #101, ( #72 ) ) ;
#219 = PLANE ( 'NONE',  #99 ) ;
#220 = DIRECTION ( 'NONE',  ( -4.275831445896958607E-31, -1.000000000000000000, -1.224646799147353207E-16 ) ) ;
#221 = EDGE_LOOP ( 'NONE', ( #188 ) ) ;
#222 = CIRCLE ( 'NONE', #80, 0.8000000000000010436 ) ;
#223 = CC_DESIGN_PERSON_AND_ORGANIZATION_ASSIGNMENT ( #167, #215, ( #72 ) ) ;
ENDSEC;
END-ISO-10303-21;
