ISO-10303-21;
HEADER;
FILE_DESCRIPTION (( 'STEP AP203' ),
    '1' );
FILE_NAME ('463.step',
    '2021-10-07T13:48:15',
    ( '' ),
    ( '' ),
    'SwSTEP 2.0',
    'SolidWorks 2019',
    '' );
FILE_SCHEMA (( 'CONFIG_CONTROL_DESIGN' ));
ENDSEC;

DATA;
#1 = PERSON_AND_ORGANIZATION_ROLE ( 'creator' ) ;
#2 = PRODUCT_DEFINITION_FORMATION_WITH_SPECIFIED_SOURCE ( 'ANY', '', #50, .NOT_KNOWN. ) ;
#3 = PERSON_AND_ORGANIZATION ( #208, #73 ) ;
#4 = EDGE_CURVE ( 'NONE', #119, #119, #122, .T. ) ;
#5 = FACE_OUTER_BOUND ( 'NONE', #144, .T. ) ;
#6 = CC_DESIGN_PERSON_AND_ORGANIZATION_ASSIGNMENT ( #18, #33, ( #2 ) ) ;
#7 = ADVANCED_BREP_SHAPE_REPRESENTATION ( '463', ( #199, #48, #8 ), #57 ) ;
#8 = AXIS2_PLACEMENT_3D ( 'NONE', #43, #184, #29 ) ;
#9 = ORIENTED_EDGE ( 'NONE', *, *, #82, .T. ) ;
#10 = EDGE_LOOP ( 'NONE', ( #178 ) ) ;
#11 = FACE_OUTER_BOUND ( 'NONE', #10, .T. ) ;
#12 = ADVANCED_FACE ( 'NONE', ( #96 ), #120, .T. ) ;
#13 = DIRECTION ( 'NONE',  ( 0.0000000000000000000, -1.000000000000000000, 0.0000000000000000000 ) ) ;
#14 = CC_DESIGN_PERSON_AND_ORGANIZATION_ASSIGNMENT ( #190, #74, ( #2 ) ) ;
#15 = DIRECTION ( 'NONE',  ( 0.0000000000000000000, 1.000000000000000000, 0.0000000000000000000 ) ) ;
#16 = DIRECTION ( 'NONE',  ( -3.491481338843133355E-15, 1.224646799147353207E-16, -1.000000000000000000 ) ) ;
#17 = DIRECTION ( 'NONE',  ( 4.275831445896958607E-31, 1.000000000000000000, 1.224646799147353207E-16 ) ) ;
#18 = PERSON_AND_ORGANIZATION ( #208, #73 ) ;
#19 = LOCAL_TIME ( 15, 48, 15.00000000000000000, #156 ) ;
#20 = CALENDAR_DATE ( 2021, 7, 10 ) ;
#21 = CONICAL_SURFACE ( 'NONE', #151, 0.9999999999999970024, 0.5235987755982918213 ) ;
#22 = EDGE_LOOP ( 'NONE', ( #179 ) ) ;
#23 = ADVANCED_FACE ( 'NONE', ( #25, #11 ), #21, .T. ) ;
#24 = FACE_OUTER_BOUND ( 'NONE', #22, .T. ) ;
#25 = FACE_BOUND ( 'NONE', #94, .T. ) ;
#26 = AXIS2_PLACEMENT_3D ( 'NONE', #40, #116, #59 ) ;
#27 = ORIENTED_EDGE ( 'NONE', *, *, #82, .F. ) ;
#28 = CARTESIAN_POINT ( 'NONE',  ( 1.783209592793397599E-15, 0.8499999999999935385, 0.5107315261734280964 ) ) ;
#29 = DIRECTION ( 'NONE',  ( 1.000000000000000000, 0.0000000000000000000, 0.0000000000000000000 ) ) ;
#30 = CLOSED_SHELL ( 'NONE', ( #12, #88, #141 ) ) ;
#31 = PERSON_AND_ORGANIZATION ( #208, #73 ) ;
#32 = AXIS2_PLACEMENT_3D ( 'NONE', #95, #115, #177 ) ;
#33 = PERSON_AND_ORGANIZATION_ROLE ( 'design_supplier' ) ;
#34 = APPROVAL_STATUS ( 'not_yet_approved' ) ;
#35 = APPROVAL_PERSON_ORGANIZATION ( #3, #174, #124 ) ;
#36 = CYLINDRICAL_SURFACE ( 'NONE', #157, 0.9999999999999991118 ) ;
#37 = CARTESIAN_POINT ( 'NONE',  ( 4.189777606611760026E-14, -1.469576158976823947E-15, 12.00000000000000000 ) ) ;
#38 = CARTESIAN_POINT ( 'NONE',  ( 0.0000000000000000000, 0.0000000000000000000, 0.0000000000000000000 ) ) ;
#39 = ORIENTED_EDGE ( 'NONE', *, *, #4, .T. ) ;
#40 = CARTESIAN_POINT ( 'NONE',  ( 1.326762908760390423E-13, -4.653657836759941941E-15, 38.00000000000000000 ) ) ;
#41 = CC_DESIGN_PERSON_AND_ORGANIZATION_ASSIGNMENT ( #109, #1, ( #217 ) ) ;
#42 = CC_DESIGN_APPROVAL ( #47, ( #164 ) ) ;
#43 = CARTESIAN_POINT ( 'NONE',  ( 0.0000000000000000000, 0.0000000000000000000, 0.0000000000000000000 ) ) ;
#44 = EDGE_CURVE ( 'NONE', #220, #220, #209, .T. ) ;
#45 = APPROVAL_STATUS ( 'not_yet_approved' ) ;
#46 = APPLICATION_CONTEXT ( 'configuration controlled 3d designs of mechanical parts and assemblies' ) ;
#47 = APPROVAL ( #34, 'UNSPECIFIED' ) ;
#48 = MANIFOLD_SOLID_BREP ( 'Corps-Déplacer/Copier1[2]', #30 ) ;
#49 = DIRECTION ( 'NONE',  ( 4.275831445896958607E-31, 1.000000000000000000, 1.224646799147353207E-16 ) ) ;
#50 = PRODUCT ( '463', '463', '', ( #198 ) ) ;
#51 = EDGE_CURVE ( 'NONE', #121, #121, #223, .T. ) ;
#52 = APPROVAL_ROLE ( '' ) ;
#53 = CLOSED_SHELL ( 'NONE', ( #194, #23, #66, #76, #215 ) ) ;
#54 = CALENDAR_DATE ( 2021, 7, 10 ) ;
#55 = COORDINATED_UNIVERSAL_TIME_OFFSET ( 1, 0, .AHEAD. ) ;
#56 = PERSON_AND_ORGANIZATION ( #208, #73 ) ;
#57 =( GEOMETRIC_REPRESENTATION_CONTEXT ( 3 ) GLOBAL_UNCERTAINTY_ASSIGNED_CONTEXT ( ( #203 ) ) GLOBAL_UNIT_ASSIGNED_CONTEXT ( ( #166, #200, #69 ) ) REPRESENTATION_CONTEXT ( 'NONE', 'WORKASPACE' ) );
#58 = EDGE_LOOP ( 'NONE', ( #61 ) ) ;
#59 = DIRECTION ( 'NONE',  ( 0.0000000000000000000, 1.000000000000000000, 0.0000000000000000000 ) ) ;
#60 = CIRCLE ( 'NONE', #176, 0.8499999999999955369 ) ;
#61 = ORIENTED_EDGE ( 'NONE', *, *, #51, .F. ) ;
#62 = ORIENTED_EDGE ( 'NONE', *, *, #44, .T. ) ;
#63 = CARTESIAN_POINT ( 'NONE',  ( 1.326762908760390423E-13, 5.999039130647368167E-33, 38.00000000000000000 ) ) ;
#64 = AXIS2_PLACEMENT_3D ( 'NONE', #98, #103, #15 ) ;
#65 = VERTEX_POINT ( 'NONE', #100 ) ;
#66 = ADVANCED_FACE ( 'NONE', ( #197, #5 ), #36, .T. ) ;
#67 = VERTEX_POINT ( 'NONE', #183 ) ;
#68 = CC_DESIGN_DATE_AND_TIME_ASSIGNMENT ( #172, #189, ( #164 ) ) ;
#69 =( NAMED_UNIT ( * ) SI_UNIT ( $, .STERADIAN. ) SOLID_ANGLE_UNIT ( ) );
#70 = AXIS2_PLACEMENT_3D ( 'NONE', #168, #16, #85 ) ;
#71 = DIRECTION ( 'NONE',  ( 3.491481338843133355E-15, -1.224646799147353207E-16, 1.000000000000000000 ) ) ;
#72 = APPROVAL_STATUS ( 'not_yet_approved' ) ;
#73 = ORGANIZATION ( 'UNSPECIFIED', 'UNSPECIFIED', '' ) ;
#74 = PERSON_AND_ORGANIZATION_ROLE ( 'creator' ) ;
#75 = DIRECTION ( 'NONE',  ( 0.0000000000000000000, 1.000000000000000000, 0.0000000000000000000 ) ) ;
#76 = ADVANCED_FACE ( 'NONE', ( #160, #77 ), #167, .T. ) ;
#77 = FACE_BOUND ( 'NONE', #161, .T. ) ;
#78 = ORIENTED_EDGE ( 'NONE', *, *, #165, .F. ) ;
#79 = AXIS2_PLACEMENT_3D ( 'NONE', #93, #148, #133 ) ;
#80 = CARTESIAN_POINT ( 'NONE',  ( 1.783209592793397204E-15, -6.254657287519313187E-17, 0.5107315261734279854 ) ) ;
#81 = FACE_OUTER_BOUND ( 'NONE', #216, .T. ) ;
#82 = EDGE_CURVE ( 'NONE', #67, #67, #60, .T. ) ;
#83 = CARTESIAN_POINT ( 'NONE',  ( 4.280488952700086418E-14, 0.9999999999999954481, 12.25980762113533906 ) ) ;
#84 = APPLICATION_CONTEXT ( 'configuration controlled 3d designs of mechanical parts and assemblies' ) ;
#85 = DIRECTION ( 'NONE',  ( 0.0000000000000000000, 1.000000000000000000, 0.0000000000000000000 ) ) ;
#86 = PLANE ( 'NONE',  #147 ) ;
#87 = SHAPE_DEFINITION_REPRESENTATION ( #126, #7 ) ;
#88 = ADVANCED_FACE ( 'NONE', ( #24, #130 ), #195, .T. ) ;
#89 = DATE_AND_TIME ( #204, #137 ) ;
#90 = APPROVAL_DATE_TIME ( #173, #174 ) ;
#91 = CIRCLE ( 'NONE', #64, 1.000000000000001110 ) ;
#92 = APPROVAL_ROLE ( '' ) ;
#93 = CARTESIAN_POINT ( 'NONE',  ( 4.280488952700086418E-14, -1.501393416138571921E-15, 12.25980762113533906 ) ) ;
#94 = EDGE_LOOP ( 'NONE', ( #196 ) ) ;
#95 = CARTESIAN_POINT ( 'NONE',  ( 4.189777606611760026E-14, -1.469576158976823947E-15, 12.00000000000000000 ) ) ;
#96 = FACE_OUTER_BOUND ( 'NONE', #129, .T. ) ;
#97 = AXIS2_PLACEMENT_3D ( 'NONE', #180, #128, #162 ) ;
#98 = CARTESIAN_POINT ( 'NONE',  ( 1.319779946082704535E-13, -4.629164900776995227E-15, 37.79999999999999716 ) ) ;
#99 = CARTESIAN_POINT ( 'NONE',  ( 4.189777606611760026E-14, 6.373979076312838727E-33, 12.00000000000000000 ) ) ;
#100 = CARTESIAN_POINT ( 'NONE',  ( 1.319779946082704535E-13, 0.9999999999999965583, 37.79999999999999716 ) ) ;
#101 = CC_DESIGN_PERSON_AND_ORGANIZATION_ASSIGNMENT ( #125, #191, ( #164 ) ) ;
#102 = LOCAL_TIME ( 15, 48, 15.00000000000000000, #158 ) ;
#103 = DIRECTION ( 'NONE',  ( -3.491481338843133355E-15, 1.224646799147353207E-16, -1.000000000000000000 ) ) ;
#104 = SECURITY_CLASSIFICATION_LEVEL ( 'unclassified' ) ;
#105 = DATE_AND_TIME ( #54, #102 ) ;
#106 = CALENDAR_DATE ( 2021, 7, 10 ) ;
#107 = DATE_TIME_ROLE ( 'creation_date' ) ;
#108 = CC_DESIGN_PERSON_AND_ORGANIZATION_ASSIGNMENT ( #31, #152, ( #50 ) ) ;
#109 = PERSON_AND_ORGANIZATION ( #208, #73 ) ;
#110 = AXIS2_PLACEMENT_3D ( 'NONE', #80, #193, #159 ) ;
#111 = DIRECTION ( 'NONE',  ( 4.275831445896957731E-31, 1.000000000000000000, 1.224646799147353207E-16 ) ) ;
#112 = EDGE_LOOP ( 'NONE', ( #78 ) ) ;
#113 = CC_DESIGN_APPROVAL ( #182, ( #217 ) ) ;
#114 = DIRECTION ( 'NONE',  ( -3.491481338843133355E-15, 1.224646799147353207E-16, -1.000000000000000000 ) ) ;
#115 = DIRECTION ( 'NONE',  ( -3.491481338843133355E-15, 1.224646799147353207E-16, -1.000000000000000000 ) ) ;
#116 = DIRECTION ( 'NONE',  ( -3.491481338843133355E-15, 1.224646799147353207E-16, -1.000000000000000000 ) ) ;
#117 = APPROVAL_PERSON_ORGANIZATION ( #56, #47, #52 ) ;
#118 = CARTESIAN_POINT ( 'NONE',  ( 4.189777606611760026E-14, 0.8499999999999939826, 12.00000000000000000 ) ) ;
#119 = VERTEX_POINT ( 'NONE', #118 ) ;
#120 = CONICAL_SURFACE ( 'NONE', #97, 0.8499999999999936495, 1.029744258676649649 ) ;
#121 = VERTEX_POINT ( 'NONE', #83 ) ;
#122 = CIRCLE ( 'NONE', #32, 0.8499999999999955369 ) ;
#123 = DATE_AND_TIME ( #106, #19 ) ;
#124 = APPROVAL_ROLE ( '' ) ;
#125 = PERSON_AND_ORGANIZATION ( #208, #73 ) ;
#126 = PRODUCT_DEFINITION_SHAPE ( 'NONE', 'NONE',  #217 ) ;
#127 = AXIS2_PLACEMENT_3D ( 'NONE', #63, #202, #49 ) ;
#128 = DIRECTION ( 'NONE',  ( 3.491481338843133355E-15, -1.224646799147353207E-16, 1.000000000000000000 ) ) ;
#129 = EDGE_LOOP ( 'NONE', ( #62 ) ) ;
#130 = FACE_OUTER_BOUND ( 'NONE', #214, .T. ) ;
#131 = LOCAL_TIME ( 15, 48, 15.00000000000000000, #205 ) ;
#132 = EDGE_LOOP ( 'NONE', ( #175 ) ) ;
#133 = DIRECTION ( 'NONE',  ( 0.0000000000000000000, 1.000000000000000000, 0.0000000000000000000 ) ) ;
#134 = VERTEX_POINT ( 'NONE', #186 ) ;
#135 = AXIS2_PLACEMENT_3D ( 'NONE', #38, #150, #17 ) ;
#136 = PERSON_AND_ORGANIZATION ( #208, #73 ) ;
#137 = LOCAL_TIME ( 15, 48, 15.00000000000000000, #207 ) ;
#138 = FACE_OUTER_BOUND ( 'NONE', #132, .T. ) ;
#139 = CC_DESIGN_DATE_AND_TIME_ASSIGNMENT ( #105, #107, ( #217 ) ) ;
#140 = DESIGN_CONTEXT ( 'detailed design', #84, 'design' ) ;
#141 = ADVANCED_FACE ( 'NONE', ( #81 ), #86, .T. ) ;
#142 = APPROVAL_DATE_TIME ( #123, #47 ) ;
#143 = AXIS2_PLACEMENT_3D ( 'NONE', #99, #71, #218 ) ;
#144 = EDGE_LOOP ( 'NONE', ( #145 ) ) ;
#145 = ORIENTED_EDGE ( 'NONE', *, *, #165, .T. ) ;
#146 = EDGE_LOOP ( 'NONE', ( #39 ) ) ;
#147 = AXIS2_PLACEMENT_3D ( 'NONE', #169, #153, #154 ) ;
#148 = DIRECTION ( 'NONE',  ( -3.491481338843133355E-15, 1.224646799147353207E-16, -1.000000000000000000 ) ) ;
#149 = FACE_OUTER_BOUND ( 'NONE', #146, .T. ) ;
#150 = DIRECTION ( 'NONE',  ( -3.491481338843133355E-15, 1.224646799147353207E-16, -1.000000000000000000 ) ) ;
#151 = AXIS2_PLACEMENT_3D ( 'NONE', #163, #192, #13 ) ;
#152 = PERSON_AND_ORGANIZATION_ROLE ( 'design_owner' ) ;
#153 = DIRECTION ( 'NONE',  ( 3.491481338843133355E-15, -1.224646799147353207E-16, 1.000000000000000000 ) ) ;
#154 = DIRECTION ( 'NONE',  ( -4.275831445896958607E-31, -1.000000000000000000, -1.224646799147353207E-16 ) ) ;
#155 = APPROVAL_DATE_TIME ( #89, #182 ) ;
#156 = COORDINATED_UNIVERSAL_TIME_OFFSET ( 1, 0, .AHEAD. ) ;
#157 = AXIS2_PLACEMENT_3D ( 'NONE', #210, #114, #111 ) ;
#158 = COORDINATED_UNIVERSAL_TIME_OFFSET ( 1, 0, .AHEAD. ) ;
#159 = DIRECTION ( 'NONE',  ( 4.531599869146471561E-31, 1.000000000000000000, 1.275531967630014860E-16 ) ) ;
#160 = FACE_OUTER_BOUND ( 'NONE', #112, .T. ) ;
#161 = EDGE_LOOP ( 'NONE', ( #212 ) ) ;
#162 = DIRECTION ( 'NONE',  ( -4.531599869146471561E-31, -1.000000000000000000, -1.275531967630014860E-16 ) ) ;
#163 = CARTESIAN_POINT ( 'NONE',  ( 4.280488952700086418E-14, -1.501393416138571921E-15, 12.25980762113533906 ) ) ;
#164 = SECURITY_CLASSIFICATION ( '', '', #104 ) ;
#165 = EDGE_CURVE ( 'NONE', #65, #65, #91, .T. ) ;
#166 =( LENGTH_UNIT ( ) NAMED_UNIT ( * ) SI_UNIT ( .MILLI., .METRE. ) );
#167 = CONICAL_SURFACE ( 'NONE', #26, 0.8000000000000010436, 0.7853981633974516097 ) ;
#168 = CARTESIAN_POINT ( 'NONE',  ( 1.326762908760390423E-13, -4.653657836759941941E-15, 38.00000000000000000 ) ) ;
#169 = CARTESIAN_POINT ( 'NONE',  ( 4.189777606611760026E-14, 6.373979076312838727E-33, 12.00000000000000000 ) ) ;
#170 = CALENDAR_DATE ( 2021, 7, 10 ) ;
#171 = CC_DESIGN_SECURITY_CLASSIFICATION ( #164, ( #2 ) ) ;
#172 = DATE_AND_TIME ( #170, #131 ) ;
#173 = DATE_AND_TIME ( #20, #181 ) ;
#174 = APPROVAL ( #72, 'UNSPECIFIED' ) ;
#175 = ORIENTED_EDGE ( 'NONE', *, *, #187, .F. ) ;
#176 = AXIS2_PLACEMENT_3D ( 'NONE', #37, #211, #75 ) ;
#177 = DIRECTION ( 'NONE',  ( 0.0000000000000000000, 1.000000000000000000, 0.0000000000000000000 ) ) ;
#178 = ORIENTED_EDGE ( 'NONE', *, *, #51, .T. ) ;
#179 = ORIENTED_EDGE ( 'NONE', *, *, #44, .F. ) ;
#180 = CARTESIAN_POINT ( 'NONE',  ( 1.783209592793397204E-15, -6.254657287519313187E-17, 0.5107315261734279854 ) ) ;
#181 = LOCAL_TIME ( 15, 48, 15.00000000000000000, #55 ) ;
#182 = APPROVAL ( #45, 'UNSPECIFIED' ) ;
#183 = CARTESIAN_POINT ( 'NONE',  ( 4.189777606611760026E-14, 0.8499999999999939826, 12.00000000000000000 ) ) ;
#184 = DIRECTION ( 'NONE',  ( 0.0000000000000000000, 0.0000000000000000000, 1.000000000000000000 ) ) ;
#185 = APPLICATION_PROTOCOL_DEFINITION ( 'international standard', 'config_control_design', 1994, #46 ) ;
#186 = CARTESIAN_POINT ( 'NONE',  ( 1.326762908760390423E-13, 0.7999999999999963807, 38.00000000000000000 ) ) ;
#187 = EDGE_CURVE ( 'NONE', #134, #134, #206, .T. ) ;
#188 = PRODUCT_RELATED_PRODUCT_CATEGORY ( 'detail', '', ( #50 ) ) ;
#189 = DATE_TIME_ROLE ( 'classification_date' ) ;
#190 = PERSON_AND_ORGANIZATION ( #208, #73 ) ;
#191 = PERSON_AND_ORGANIZATION_ROLE ( 'classification_officer' ) ;
#192 = DIRECTION ( 'NONE',  ( 3.491481338843133355E-15, -1.224646799147353207E-16, 1.000000000000000000 ) ) ;
#193 = DIRECTION ( 'NONE',  ( -3.491481338843133355E-15, 1.224646799147353207E-16, -1.000000000000000000 ) ) ;
#194 = ADVANCED_FACE ( 'NONE', ( #149 ), #222, .F. ) ;
#195 = CYLINDRICAL_SURFACE ( 'NONE', #135, 0.8499999999999946487 ) ;
#196 = ORIENTED_EDGE ( 'NONE', *, *, #4, .F. ) ;
#197 = FACE_OUTER_BOUND ( 'NONE', #58, .T. ) ;
#198 = MECHANICAL_CONTEXT ( 'NONE', #46, 'mechanical' ) ;
#199 = MANIFOLD_SOLID_BREP ( 'Corps-Déplacer/Copier1[1]', #53 ) ;
#200 =( NAMED_UNIT ( * ) PLANE_ANGLE_UNIT ( ) SI_UNIT ( $, .RADIAN. ) );
#201 = PLANE ( 'NONE',  #127 ) ;
#202 = DIRECTION ( 'NONE',  ( -3.491481338843133355E-15, 1.224646799147353207E-16, -1.000000000000000000 ) ) ;
#203 = UNCERTAINTY_MEASURE_WITH_UNIT (LENGTH_MEASURE( 1.000000000000000082E-05 ), #166, 'distance_accuracy_value', 'NONE');
#204 = CALENDAR_DATE ( 2021, 7, 10 ) ;
#205 = COORDINATED_UNIVERSAL_TIME_OFFSET ( 1, 0, .AHEAD. ) ;
#206 = CIRCLE ( 'NONE', #70, 0.8000000000000010436 ) ;
#207 = COORDINATED_UNIVERSAL_TIME_OFFSET ( 1, 0, .AHEAD. ) ;
#208 = PERSON ( 'UNSPECIFIED', 'UNSPECIFIED', 'UNSPECIFIED', ('UNSPECIFIED'), ('UNSPECIFIED'), ('UNSPECIFIED') ) ;
#209 = CIRCLE ( 'NONE', #110, 0.8499999999999936495 ) ;
#210 = CARTESIAN_POINT ( 'NONE',  ( 0.0000000000000000000, 0.0000000000000000000, 0.0000000000000000000 ) ) ;
#211 = DIRECTION ( 'NONE',  ( -3.491481338843133355E-15, 1.224646799147353207E-16, -1.000000000000000000 ) ) ;
#212 = ORIENTED_EDGE ( 'NONE', *, *, #187, .T. ) ;
#213 = APPROVAL_PERSON_ORGANIZATION ( #136, #182, #92 ) ;
#214 = EDGE_LOOP ( 'NONE', ( #9 ) ) ;
#215 = ADVANCED_FACE ( 'NONE', ( #138 ), #201, .F. ) ;
#216 = EDGE_LOOP ( 'NONE', ( #27 ) ) ;
#217 = PRODUCT_DEFINITION ( 'UNKNOWN', '', #2, #140 ) ;
#218 = DIRECTION ( 'NONE',  ( -4.275831445896958607E-31, -1.000000000000000000, -1.224646799147353207E-16 ) ) ;
#219 = CC_DESIGN_APPROVAL ( #174, ( #2 ) ) ;
#220 = VERTEX_POINT ( 'NONE', #28 ) ;
#221 = APPLICATION_PROTOCOL_DEFINITION ( 'international standard', 'config_control_design', 1994, #84 ) ;
#222 = PLANE ( 'NONE',  #143 ) ;
#223 = CIRCLE ( 'NONE', #79, 0.9999999999999970024 ) ;
ENDSEC;
END-ISO-10303-21;
