ISO-10303-21;
HEADER;
FILE_DESCRIPTION (( 'STEP AP203' ),
    '1' );
FILE_NAME ('4616.step',
    '2021-09-03T07:22:39',
    ( '' ),
    ( '' ),
    'SwSTEP 2.0',
    'SolidWorks 2019',
    '' );
FILE_SCHEMA (( 'CONFIG_CONTROL_DESIGN' ));
ENDSEC;

DATA;
#1 = PLANE ( 'NONE',  #303 ) ;
#2 = EDGE_CURVE ( 'NONE', #178, #282, #328, .T. ) ;
#3 = CC_DESIGN_SECURITY_CLASSIFICATION ( #9, ( #299 ) ) ;
#4 = DIRECTION ( 'NONE',  ( -3.491481338843133355E-15, 1.224646799147353207E-16, -1.000000000000000000 ) ) ;
#5 = VERTEX_POINT ( 'NONE', #84 ) ;
#6 = CARTESIAN_POINT ( 'NONE',  ( 4.667813345841560564E-15, -1.637248525262415467E-16, 1.336914877336332186 ) ) ;
#7 = DIRECTION ( 'NONE',  ( 3.462345967437737694E-31, 1.000000000000000000, 9.745637505487709348E-17 ) ) ;
#8 = EDGE_LOOP ( 'NONE', ( #77, #238, #192 ) ) ;
#9 = SECURITY_CLASSIFICATION ( '', '', #174 ) ;
#10 = FACE_OUTER_BOUND ( 'NONE', #105, .T. ) ;
#11 = CYLINDRICAL_SURFACE ( 'NONE', #16, 2.224999999999997868 ) ;
#12 = FACE_OUTER_BOUND ( 'NONE', #118, .T. ) ;
#13 = VERTEX_POINT ( 'NONE', #168 ) ;
#14 = EDGE_LOOP ( 'NONE', ( #95, #171, #143, #53 ) ) ;
#15 = CC_DESIGN_DATE_AND_TIME_ASSIGNMENT ( #22, #225, ( #44 ) ) ;
#16 = AXIS2_PLACEMENT_3D ( 'NONE', #48, #72, #144 ) ;
#17 = PERSON_AND_ORGANIZATION_ROLE ( 'classification_officer' ) ;
#18 = DIRECTION ( 'NONE',  ( -3.491481338843133355E-15, 1.224646799147353207E-16, -1.000000000000000000 ) ) ;
#19 = APPROVAL_DATE_TIME ( #81, #327 ) ;
#20 = DATE_TIME_ROLE ( 'classification_date' ) ;
#21 = CONICAL_SURFACE ( 'NONE', #36, 1.725000000000000533, 0.7853981633974476129 ) ;
#22 = DATE_AND_TIME ( #243, #67 ) ;
#23 = CARTESIAN_POINT ( 'NONE',  ( 6.284666409917640040E-14, 2.224999999999993427, 18.00000000000000000 ) ) ;
#24 = ORIENTED_EDGE ( 'NONE', *, *, #116, .T. ) ;
#25 = VERTEX_POINT ( 'NONE', #41 ) ;
#26 = DIRECTION ( 'NONE',  ( -3.491481338843133355E-15, 1.224646799147353207E-16, -1.000000000000000000 ) ) ;
#27 = EDGE_CURVE ( 'NONE', #65, #261, #298, .T. ) ;
#28 = CLOSED_SHELL ( 'NONE', ( #122, #167, #288, #34, #163 ) ) ;
#29 = LOCAL_TIME ( 9, 22, 39.00000000000000000, #241 ) ;
#30 = VERTEX_POINT ( 'NONE', #325 ) ;
#31 = SHAPE_DEFINITION_REPRESENTATION ( #249, #275 ) ;
#32 = CARTESIAN_POINT ( 'NONE',  ( 6.284666409917640040E-14, 1.668482758211309883E-32, 18.00000000000000000 ) ) ;
#33 = ORIENTED_EDGE ( 'NONE', *, *, #315, .T. ) ;
#34 = ADVANCED_FACE ( 'NONE', ( #10 ), #120, .T. ) ;
#35 = CARTESIAN_POINT ( 'NONE',  ( 6.284666409917640040E-14, -2.204364238465235428E-15, 18.00000000000000000 ) ) ;
#36 = AXIS2_PLACEMENT_3D ( 'NONE', #292, #267, #91 ) ;
#37 = CARTESIAN_POINT ( 'NONE',  ( 6.284666409917640040E-14, -2.204364238465235428E-15, 18.00000000000000000 ) ) ;
#38 = ORIENTED_EDGE ( 'NONE', *, *, #116, .F. ) ;
#39 = ORIENTED_EDGE ( 'NONE', *, *, #141, .F. ) ;
#40 = AXIS2_PLACEMENT_3D ( 'NONE', #35, #4, #213 ) ;
#41 = CARTESIAN_POINT ( 'NONE',  ( 0.0000000000000000000, 0.0000000000000000000, 0.0000000000000000000 ) ) ;
#42 = CARTESIAN_POINT ( 'NONE',  ( 9.513724967120722346E-31, 2.224999999999997868, 2.724839128102858427E-16 ) ) ;
#43 = DIRECTION ( 'NONE',  ( -3.491481338843133355E-15, 1.224646799147353207E-16, -1.000000000000000000 ) ) ;
#44 = PRODUCT_DEFINITION ( 'UNKNOWN', '', #299, #296 ) ;
#45 = DIRECTION ( 'NONE',  ( 4.275831445896957731E-31, 1.000000000000000000, 1.224646799147353207E-16 ) ) ;
#46 = ORIENTED_EDGE ( 'NONE', *, *, #137, .F. ) ;
#47 = CALENDAR_DATE ( 2021, 3, 9 ) ;
#48 = CARTESIAN_POINT ( 'NONE',  ( 0.0000000000000000000, 0.0000000000000000000, 0.0000000000000000000 ) ) ;
#49 = ORIENTED_EDGE ( 'NONE', *, *, #188, .T. ) ;
#50 = PERSON_AND_ORGANIZATION_ROLE ( 'creator' ) ;
#51 = CIRCLE ( 'NONE', #66, 2.224999999999993427 ) ;
#52 = AXIS2_PLACEMENT_3D ( 'NONE', #279, #194, #252 ) ;
#53 = ORIENTED_EDGE ( 'NONE', *, *, #188, .F. ) ;
#54 = EDGE_CURVE ( 'NONE', #261, #282, #126, .T. ) ;
#55 = CARTESIAN_POINT ( 'NONE',  ( 2.025059176529017346E-13, -7.102951435054648059E-15, 58.00000000000000000 ) ) ;
#56 = ORIENTED_EDGE ( 'NONE', *, *, #210, .T. ) ;
#57 = MANIFOLD_SOLID_BREP ( 'Corps-Déplacer/Copier1[2]', #28 ) ;
#58 = AXIS2_PLACEMENT_3D ( 'NONE', #183, #26, #272 ) ;
#59 = AXIS2_PLACEMENT_3D ( 'NONE', #104, #221, #200 ) ;
#60 = MANIFOLD_SOLID_BREP ( 'Corps-Déplacer/Copier1[1]', #211 ) ;
#61 = DIRECTION ( 'NONE',  ( 3.462345967437737694E-31, 1.000000000000000000, 9.745637505487709348E-17 ) ) ;
#62 = DIRECTION ( 'NONE',  ( 4.275831445896959482E-31, 1.000000000000000000, 1.224646799147353207E-16 ) ) ;
#63 = CARTESIAN_POINT ( 'NONE',  ( 2.025059176529017346E-13, 1.724999999999993427, 58.00000000000000000 ) ) ;
#64 = LINE ( 'NONE', #256, #127 ) ;
#65 = VERTEX_POINT ( 'NONE', #229 ) ;
#66 = AXIS2_PLACEMENT_3D ( 'NONE', #86, #316, #7 ) ;
#67 = LOCAL_TIME ( 9, 22, 39.00000000000000000, #177 ) ;
#68 = ORIENTED_EDGE ( 'NONE', *, *, #263, .T. ) ;
#69 = ORIENTED_EDGE ( 'NONE', *, *, #333, .T. ) ;
#70 = ORIENTED_EDGE ( 'NONE', *, *, #54, .F. ) ;
#71 = DIRECTION ( 'NONE',  ( 1.798245827342159528E-15, -0.8571673007021100021, 0.5150380749100580413 ) ) ;
#72 = DIRECTION ( 'NONE',  ( -3.491481338843133355E-15, 1.224646799147353207E-16, -1.000000000000000000 ) ) ;
#73 = FACE_OUTER_BOUND ( 'NONE', #157, .T. ) ;
#74 = ORIENTED_EDGE ( 'NONE', *, *, #315, .F. ) ;
#75 = ORIENTED_EDGE ( 'NONE', *, *, #141, .T. ) ;
#76 = PERSON_AND_ORGANIZATION ( #237, #274 ) ;
#77 = ORIENTED_EDGE ( 'NONE', *, *, #294, .F. ) ;
#78 = PERSON_AND_ORGANIZATION ( #237, #274 ) ;
#79 = PERSON_AND_ORGANIZATION ( #237, #274 ) ;
#80 = APPROVAL ( #107, 'UNSPECIFIED' ) ;
#81 = DATE_AND_TIME ( #246, #247 ) ;
#82 = CC_DESIGN_PERSON_AND_ORGANIZATION_ASSIGNMENT ( #300, #151, ( #44 ) ) ;
#83 = AXIS2_PLACEMENT_3D ( 'NONE', #219, #142, #255 ) ;
#84 = CARTESIAN_POINT ( 'NONE',  ( 3.402972263531923447E-14, -2.224999999999997868, 18.00000000000000000 ) ) ;
#85 = DIRECTION ( 'NONE',  ( -3.491481338843133355E-15, 1.224646799147353207E-16, -1.000000000000000000 ) ) ;
#86 = CARTESIAN_POINT ( 'NONE',  ( 4.667813345841560564E-15, -1.637248525262415467E-16, 1.336914877336332186 ) ) ;
#87 = AXIS2_PLACEMENT_3D ( 'NONE', #336, #218, #96 ) ;
#88 = CARTESIAN_POINT ( 'NONE',  ( 4.940297258651846900E-15, 2.224999999999993427, 1.336914877336332408 ) ) ;
#89 = DIRECTION ( 'NONE',  ( -3.491481338843133355E-15, 1.224646799147353207E-16, -1.000000000000000000 ) ) ;
#90 = DIRECTION ( 'NONE',  ( 3.491481338843133355E-15, -1.224646799147353207E-16, 1.000000000000000000 ) ) ;
#91 = DIRECTION ( 'NONE',  ( 0.0000000000000000000, 1.000000000000000000, 0.0000000000000000000 ) ) ;
#92 = EDGE_CURVE ( 'NONE', #121, #65, #280, .T. ) ;
#93 = VECTOR ( 'NONE', #276, 999.9999999999998863 ) ;
#94 = CIRCLE ( 'NONE', #224, 2.224999999999995648 ) ;
#95 = ORIENTED_EDGE ( 'NONE', *, *, #244, .T. ) ;
#96 = DIRECTION ( 'NONE',  ( 4.275831445896958607E-31, 1.000000000000000000, 1.224646799147353207E-16 ) ) ;
#97 = EDGE_CURVE ( 'NONE', #5, #13, #193, .T. ) ;
#98 = DIRECTION ( 'NONE',  ( 3.491481338843133355E-15, -1.224646799147353207E-16, 1.000000000000000000 ) ) ;
#99 = CIRCLE ( 'NONE', #264, 1.725000000000000533 ) ;
#100 = CC_DESIGN_DATE_AND_TIME_ASSIGNMENT ( #273, #20, ( #9 ) ) ;
#101 = APPROVAL_STATUS ( 'not_yet_approved' ) ;
#102 = EDGE_LOOP ( 'NONE', ( #214, #39 ) ) ;
#103 = UNCERTAINTY_MEASURE_WITH_UNIT (LENGTH_MEASURE( 1.000000000000000082E-05 ), #130, 'distance_accuracy_value', 'NONE');
#104 = CARTESIAN_POINT ( 'NONE',  ( 0.0000000000000000000, 0.0000000000000000000, 0.0000000000000000000 ) ) ;
#105 = EDGE_LOOP ( 'NONE', ( #253, #56, #49, #46 ) ) ;
#106 = AXIS2_PLACEMENT_3D ( 'NONE', #217, #18, #62 ) ;
#107 = APPROVAL_STATUS ( 'not_yet_approved' ) ;
#108 = CC_DESIGN_PERSON_AND_ORGANIZATION_ASSIGNMENT ( #181, #222, ( #195 ) ) ;
#109 = LOCAL_TIME ( 9, 22, 39.00000000000000000, #179 ) ;
#110 = FACE_OUTER_BOUND ( 'NONE', #289, .T. ) ;
#111 = DIRECTION ( 'NONE',  ( -3.491481338843133355E-15, 1.224646799147353207E-16, -1.000000000000000000 ) ) ;
#112 = DIRECTION ( 'NONE',  ( 0.0000000000000000000, 1.000000000000000000, 0.0000000000000000000 ) ) ;
#113 = ORIENTED_EDGE ( 'NONE', *, *, #239, .T. ) ;
#114 = CARTESIAN_POINT ( 'NONE',  ( 6.284666409917640040E-14, 2.224999999999993427, 18.00000000000000000 ) ) ;
#115 = FACE_OUTER_BOUND ( 'NONE', #321, .T. ) ;
#116 = EDGE_CURVE ( 'NONE', #65, #178, #165, .T. ) ;
#117 = VERTEX_POINT ( 'NONE', #23 ) ;
#118 = EDGE_LOOP ( 'NONE', ( #254, #75, #259, #38 ) ) ;
#119 = LOCAL_TIME ( 9, 22, 39.00000000000000000, #155 ) ;
#120 = CYLINDRICAL_SURFACE ( 'NONE', #106, 2.224999999999994316 ) ;
#121 = VERTEX_POINT ( 'NONE', #202 ) ;
#122 = ADVANCED_FACE ( 'NONE', ( #223 ), #134, .T. ) ;
#123 = DIRECTION ( 'NONE',  ( 4.275831445896959482E-31, 1.000000000000000000, 1.224646799147353207E-16 ) ) ;
#124 = DIRECTION ( 'NONE',  ( 0.0000000000000000000, 1.000000000000000000, 0.0000000000000000000 ) ) ;
#125 = DATE_AND_TIME ( #47, #29 ) ;
#126 = CIRCLE ( 'NONE', #58, 2.224999999999995648 ) ;
#127 = VECTOR ( 'NONE', #71, 1000.000000000000000 ) ;
#128 = CARTESIAN_POINT ( 'NONE',  ( 2.724839128102848566E-16, -2.224999999999997868, -2.724839128102867302E-16 ) ) ;
#129 = CARTESIAN_POINT ( 'NONE',  ( 2.724839128102844622E-16, -2.224999999999994316, -2.724839128102863357E-16 ) ) ;
#130 =( LENGTH_UNIT ( ) NAMED_UNIT ( * ) SI_UNIT ( .MILLI., .METRE. ) );
#131 = CARTESIAN_POINT ( 'NONE',  ( 0.0000000000000000000, 0.0000000000000000000, 0.0000000000000000000 ) ) ;
#132 = ADVANCED_FACE ( 'NONE', ( #115 ), #21, .T. ) ;
#133 = PERSON_AND_ORGANIZATION_ROLE ( 'design_supplier' ) ;
#134 = CYLINDRICAL_SURFACE ( 'NONE', #309, 2.224999999999994316 ) ;
#135 = VECTOR ( 'NONE', #162, 1000.000000000000000 ) ;
#136 = PERSON_AND_ORGANIZATION ( #237, #274 ) ;
#137 = EDGE_CURVE ( 'NONE', #13, #30, #51, .T. ) ;
#138 = CARTESIAN_POINT ( 'NONE',  ( 6.284666409917640040E-14, 1.668482758211309883E-32, 18.00000000000000000 ) ) ;
#139 = FACE_OUTER_BOUND ( 'NONE', #140, .T. ) ;
#140 = EDGE_LOOP ( 'NONE', ( #33, #262 ) ) ;
#141 = EDGE_CURVE ( 'NONE', #121, #312, #215, .T. ) ;
#142 = DIRECTION ( 'NONE',  ( -3.491481338843133355E-15, 1.224646799147353207E-16, -1.000000000000000000 ) ) ;
#143 = ORIENTED_EDGE ( 'NONE', *, *, #239, .F. ) ;
#144 = DIRECTION ( 'NONE',  ( 4.275831445896957731E-31, 1.000000000000000000, 1.224646799147353207E-16 ) ) ;
#145 = ADVANCED_FACE ( 'NONE', ( #176 ), #11, .T. ) ;
#146 = CC_DESIGN_APPROVAL ( #80, ( #9 ) ) ;
#147 = DIRECTION ( 'NONE',  ( -3.491481338843133355E-15, 1.224646799147353207E-16, -1.000000000000000000 ) ) ;
#148 = DIRECTION ( 'NONE',  ( 0.0000000000000000000, 1.000000000000000000, 0.0000000000000000000 ) ) ;
#149 = APPROVAL_ROLE ( '' ) ;
#150 = DIRECTION ( 'NONE',  ( -3.491481338843133355E-15, 1.224646799147353207E-16, -1.000000000000000000 ) ) ;
#151 = PERSON_AND_ORGANIZATION_ROLE ( 'creator' ) ;
#152 = CC_DESIGN_PERSON_AND_ORGANIZATION_ASSIGNMENT ( #79, #17, ( #9 ) ) ;
#153 = DIRECTION ( 'NONE',  ( -3.491481338843133355E-15, 1.224646799147353207E-16, -1.000000000000000000 ) ) ;
#154 =( NAMED_UNIT ( * ) PLANE_ANGLE_UNIT ( ) SI_UNIT ( $, .RADIAN. ) );
#155 = COORDINATED_UNIVERSAL_TIME_OFFSET ( 1, 0, .AHEAD. ) ;
#156 = CALENDAR_DATE ( 2021, 3, 9 ) ;
#157 = EDGE_LOOP ( 'NONE', ( #242, #251, #113 ) ) ;
#158 = VECTOR ( 'NONE', #187, 1000.000000000000114 ) ;
#159 = ORIENTED_EDGE ( 'NONE', *, *, #27, .F. ) ;
#160 = DIRECTION ( 'NONE',  ( 0.0000000000000000000, 1.000000000000000000, 0.0000000000000000000 ) ) ;
#161 = ORIENTED_EDGE ( 'NONE', *, *, #92, .T. ) ;
#162 = DIRECTION ( 'NONE',  ( -2.468850131082267316E-15, 0.7071067811865471286, -0.7071067811865479058 ) ) ;
#163 = ADVANCED_FACE ( 'NONE', ( #260 ), #1, .T. ) ;
#164 = DIRECTION ( 'NONE',  ( -3.491481338843133355E-15, 1.224646799147353207E-16, -1.000000000000000000 ) ) ;
#165 = CIRCLE ( 'NONE', #184, 2.225000000000000533 ) ;
#166 = CONICAL_SURFACE ( 'NONE', #52, 2.224999999999993427, 1.029744258676649871 ) ;
#167 = ADVANCED_FACE ( 'NONE', ( #73 ), #304, .T. ) ;
#168 = CARTESIAN_POINT ( 'NONE',  ( 4.667813345841559775E-15, -2.224999999999993427, 1.336914877336331964 ) ) ;
#169 = ORIENTED_EDGE ( 'NONE', *, *, #2, .F. ) ;
#170 = CARTESIAN_POINT ( 'NONE',  ( 1.320759044541385737E-13, -2.224999999999997868, 18.00000000000000000 ) ) ;
#171 = ORIENTED_EDGE ( 'NONE', *, *, #97, .T. ) ;
#172 = DIRECTION ( 'NONE',  ( -3.491481338843133355E-15, 1.224646799147353207E-16, -1.000000000000000000 ) ) ;
#173 = ORIENTED_EDGE ( 'NONE', *, *, #210, .F. ) ;
#174 = SECURITY_CLASSIFICATION_LEVEL ( 'unclassified' ) ;
#175 = CARTESIAN_POINT ( 'NONE',  ( 2.007601769834801742E-13, -7.041719095097280485E-15, 57.50000000000000000 ) ) ;
#176 = FACE_OUTER_BOUND ( 'NONE', #317, .T. ) ;
#177 = COORDINATED_UNIVERSAL_TIME_OFFSET ( 1, 0, .AHEAD. ) ;
#178 = VERTEX_POINT ( 'NONE', #337 ) ;
#179 = COORDINATED_UNIVERSAL_TIME_OFFSET ( 1, 0, .AHEAD. ) ;
#180 = ADVANCED_FACE ( 'NONE', ( #12 ), #324, .T. ) ;
#181 = PERSON_AND_ORGANIZATION ( #237, #274 ) ;
#182 = PERSON_AND_ORGANIZATION ( #237, #274 ) ;
#183 = CARTESIAN_POINT ( 'NONE',  ( 6.284666409917640040E-14, -2.204364238465235428E-15, 18.00000000000000000 ) ) ;
#184 = AXIS2_PLACEMENT_3D ( 'NONE', #175, #153, #301 ) ;
#185 = FACE_OUTER_BOUND ( 'NONE', #8, .T. ) ;
#186 = AXIS2_PLACEMENT_3D ( 'NONE', #209, #98, #212 ) ;
#187 = DIRECTION ( 'NONE',  ( 1.903218546456021928E-15, 0.8571673007021098911, 0.5150380749100583744 ) ) ;
#188 = EDGE_CURVE ( 'NONE', #117, #30, #291, .T. ) ;
#189 = DIRECTION ( 'NONE',  ( -3.491481338843133355E-15, 1.224646799147353207E-16, -1.000000000000000000 ) ) ;
#190 = VECTOR ( 'NONE', #150, 1000.000000000000000 ) ;
#191 = CC_DESIGN_APPROVAL ( #327, ( #299 ) ) ;
#192 = ORIENTED_EDGE ( 'NONE', *, *, #137, .T. ) ;
#193 = LINE ( 'NONE', #129, #330 ) ;
#194 = DIRECTION ( 'NONE',  ( 3.491481338843133355E-15, -1.224646799147353207E-16, 1.000000000000000000 ) ) ;
#195 = PRODUCT ( '4616', '4616', '', ( #297 ) ) ;
#196 = APPROVAL_PERSON_ORGANIZATION ( #78, #198, #220 ) ;
#197 = DIRECTION ( 'NONE',  ( -4.275831445896958607E-31, -1.000000000000000000, -1.224646799147353207E-16 ) ) ;
#198 = APPROVAL ( #101, 'UNSPECIFIED' ) ;
#199 = DIRECTION ( 'NONE',  ( -3.491481338843133355E-15, 1.224646799147353207E-16, -1.000000000000000000 ) ) ;
#200 = DIRECTION ( 'NONE',  ( 1.000000000000000000, 0.0000000000000000000, 0.0000000000000000000 ) ) ;
#201 = APPLICATION_PROTOCOL_DEFINITION ( 'international standard', 'config_control_design', 1994, #313 ) ;
#202 = CARTESIAN_POINT ( 'NONE',  ( 2.018749150610225507E-13, -1.725000000000007860, 58.00000000000000000 ) ) ;
#203 = ADVANCED_FACE ( 'NONE', ( #139 ), #234, .F. ) ;
#204 = AXIS2_PLACEMENT_3D ( 'NONE', #138, #90, #266 ) ;
#205 = PERSON_AND_ORGANIZATION ( #237, #274 ) ;
#206 = APPROVAL_STATUS ( 'not_yet_approved' ) ;
#207 = VECTOR ( 'NONE', #172, 1000.000000000000000 ) ;
#208 = CC_DESIGN_PERSON_AND_ORGANIZATION_ASSIGNMENT ( #182, #133, ( #299 ) ) ;
#209 = CARTESIAN_POINT ( 'NONE',  ( 4.667813345841560564E-15, -1.637248525262415467E-16, 1.336914877336332186 ) ) ;
#210 = EDGE_CURVE ( 'NONE', #5, #117, #94, .T. ) ;
#211 = CLOSED_SHELL ( 'NONE', ( #132, #145, #203, #235, #180, #284 ) ) ;
#212 = DIRECTION ( 'NONE',  ( -3.462345967437737694E-31, -1.000000000000000000, -9.745637505487709348E-17 ) ) ;
#213 = DIRECTION ( 'NONE',  ( 0.0000000000000000000, 1.000000000000000000, 0.0000000000000000000 ) ) ;
#214 = ORIENTED_EDGE ( 'NONE', *, *, #333, .F. ) ;
#215 = CIRCLE ( 'NONE', #231, 1.725000000000000533 ) ;
#216 = AXIS2_PLACEMENT_3D ( 'NONE', #228, #164, #160 ) ;
#217 = CARTESIAN_POINT ( 'NONE',  ( 0.0000000000000000000, 0.0000000000000000000, 0.0000000000000000000 ) ) ;
#218 = DIRECTION ( 'NONE',  ( -3.491481338843133355E-15, 1.224646799147353207E-16, -1.000000000000000000 ) ) ;
#219 = CARTESIAN_POINT ( 'NONE',  ( 2.025059176529017346E-13, -7.102951435054648059E-15, 58.00000000000000000 ) ) ;
#220 = APPROVAL_ROLE ( '' ) ;
#221 = DIRECTION ( 'NONE',  ( 0.0000000000000000000, 0.0000000000000000000, 1.000000000000000000 ) ) ;
#222 = PERSON_AND_ORGANIZATION_ROLE ( 'design_owner' ) ;
#223 = FACE_OUTER_BOUND ( 'NONE', #14, .T. ) ;
#224 = AXIS2_PLACEMENT_3D ( 'NONE', #37, #322, #112 ) ;
#225 = DATE_TIME_ROLE ( 'creation_date' ) ;
#226 = VECTOR ( 'NONE', #147, 1000.000000000000000 ) ;
#227 = AXIS2_PLACEMENT_3D ( 'NONE', #240, #111, #124 ) ;
#228 = CARTESIAN_POINT ( 'NONE',  ( 6.284666409917640040E-14, -2.204364238465235428E-15, 18.00000000000000000 ) ) ;
#229 = CARTESIAN_POINT ( 'NONE',  ( 1.320759044541384222E-13, -2.225000000000007638, 57.50000000000000000 ) ) ;
#230 = LINE ( 'NONE', #88, #158 ) ;
#231 = AXIS2_PLACEMENT_3D ( 'NONE', #55, #277, #295 ) ;
#232 = CARTESIAN_POINT ( 'NONE',  ( 0.0000000000000000000, 0.0000000000000000000, 0.0000000000000000000 ) ) ;
#233 = CIRCLE ( 'NONE', #319, 2.224999999999993427 ) ;
#234 = PLANE ( 'NONE',  #204 ) ;
#235 = ADVANCED_FACE ( 'NONE', ( #110 ), #306, .T. ) ;
#236 = ORIENTED_EDGE ( 'NONE', *, *, #305, .F. ) ;
#237 = PERSON ( 'UNSPECIFIED', 'UNSPECIFIED', 'UNSPECIFIED', ('UNSPECIFIED'), ('UNSPECIFIED'), ('UNSPECIFIED') ) ;
#238 = ORIENTED_EDGE ( 'NONE', *, *, #320, .T. ) ;
#239 = EDGE_CURVE ( 'NONE', #30, #13, #233, .T. ) ;
#240 = CARTESIAN_POINT ( 'NONE',  ( 2.007601769834801742E-13, -7.041719095097280485E-15, 57.50000000000000000 ) ) ;
#241 = COORDINATED_UNIVERSAL_TIME_OFFSET ( 1, 0, .AHEAD. ) ;
#242 = ORIENTED_EDGE ( 'NONE', *, *, #320, .F. ) ;
#243 = CALENDAR_DATE ( 2021, 3, 9 ) ;
#244 = EDGE_CURVE ( 'NONE', #117, #5, #331, .T. ) ;
#245 = COORDINATED_UNIVERSAL_TIME_OFFSET ( 1, 0, .AHEAD. ) ;
#246 = CALENDAR_DATE ( 2021, 3, 9 ) ;
#247 = LOCAL_TIME ( 9, 22, 39.00000000000000000, #245 ) ;
#248 = ORIENTED_EDGE ( 'NONE', *, *, #2, .T. ) ;
#249 = PRODUCT_DEFINITION_SHAPE ( 'NONE', 'NONE',  #44 ) ;
#250 = AXIS2_PLACEMENT_3D ( 'NONE', #232, #85, #45 ) ;
#251 = ORIENTED_EDGE ( 'NONE', *, *, #294, .T. ) ;
#252 = DIRECTION ( 'NONE',  ( -3.462345967437737694E-31, -1.000000000000000000, -9.745637505487709348E-17 ) ) ;
#253 = ORIENTED_EDGE ( 'NONE', *, *, #97, .F. ) ;
#254 = ORIENTED_EDGE ( 'NONE', *, *, #92, .F. ) ;
#255 = DIRECTION ( 'NONE',  ( 0.0000000000000000000, 1.000000000000000000, 0.0000000000000000000 ) ) ;
#256 = CARTESIAN_POINT ( 'NONE',  ( 4.667813345841559775E-15, -2.224999999999993427, 1.336914877336331964 ) ) ;
#257 =( GEOMETRIC_REPRESENTATION_CONTEXT ( 3 ) GLOBAL_UNCERTAINTY_ASSIGNED_CONTEXT ( ( #103 ) ) GLOBAL_UNIT_ASSIGNED_CONTEXT ( ( #130, #154, #329 ) ) REPRESENTATION_CONTEXT ( 'NONE', 'WORKASPACE' ) );
#258 = CC_DESIGN_PERSON_AND_ORGANIZATION_ASSIGNMENT ( #136, #50, ( #299 ) ) ;
#259 = ORIENTED_EDGE ( 'NONE', *, *, #305, .T. ) ;
#260 = FACE_OUTER_BOUND ( 'NONE', #326, .T. ) ;
#261 = VERTEX_POINT ( 'NONE', #170 ) ;
#262 = ORIENTED_EDGE ( 'NONE', *, *, #54, .T. ) ;
#263 = EDGE_CURVE ( 'NONE', #178, #65, #278, .T. ) ;
#264 = AXIS2_PLACEMENT_3D ( 'NONE', #265, #43, #148 ) ;
#265 = CARTESIAN_POINT ( 'NONE',  ( 2.025059176529017346E-13, -7.102951435054648059E-15, 58.00000000000000000 ) ) ;
#266 = DIRECTION ( 'NONE',  ( -4.275831445896958607E-31, -1.000000000000000000, -1.224646799147353207E-16 ) ) ;
#267 = DIRECTION ( 'NONE',  ( -3.491481338843133355E-15, 1.224646799147353207E-16, -1.000000000000000000 ) ) ;
#268 = DATE_AND_TIME ( #156, #119 ) ;
#269 = CIRCLE ( 'NONE', #40, 2.224999999999995648 ) ;
#270 = APPROVAL_ROLE ( '' ) ;
#271 = CALENDAR_DATE ( 2021, 3, 9 ) ;
#272 = DIRECTION ( 'NONE',  ( 0.0000000000000000000, 1.000000000000000000, 0.0000000000000000000 ) ) ;
#273 = DATE_AND_TIME ( #271, #109 ) ;
#274 = ORGANIZATION ( 'UNSPECIFIED', 'UNSPECIFIED', '' ) ;
#275 = ADVANCED_BREP_SHAPE_REPRESENTATION ( '4616', ( #60, #57, #59 ), #257 ) ;
#276 = DIRECTION ( 'NONE',  ( -2.382254525458718258E-15, -0.7071067811865469066, -0.7071067811865482389 ) ) ;
#277 = DIRECTION ( 'NONE',  ( -3.491481338843133355E-15, 1.224646799147353207E-16, -1.000000000000000000 ) ) ;
#278 = CIRCLE ( 'NONE', #227, 2.225000000000000533 ) ;
#279 = CARTESIAN_POINT ( 'NONE',  ( 4.667813345841560564E-15, -1.637248525262415467E-16, 1.336914877336332186 ) ) ;
#280 = LINE ( 'NONE', #334, #93 ) ;
#281 = LINE ( 'NONE', #63, #135 ) ;
#282 = VERTEX_POINT ( 'NONE', #114 ) ;
#283 = PLANE ( 'NONE',  #87 ) ;
#284 = ADVANCED_FACE ( 'NONE', ( #323 ), #283, .F. ) ;
#285 = APPROVAL_PERSON_ORGANIZATION ( #205, #80, #149 ) ;
#286 = ORIENTED_EDGE ( 'NONE', *, *, #27, .T. ) ;
#287 = PRODUCT_RELATED_PRODUCT_CATEGORY ( 'detail', '', ( #195 ) ) ;
#288 = ADVANCED_FACE ( 'NONE', ( #185 ), #166, .T. ) ;
#289 = EDGE_LOOP ( 'NONE', ( #159, #24, #248, #70 ) ) ;
#290 = CARTESIAN_POINT ( 'NONE',  ( 2.025059176529017346E-13, 1.724999999999993427, 58.00000000000000000 ) ) ;
#291 = LINE ( 'NONE', #311, #207 ) ;
#292 = CARTESIAN_POINT ( 'NONE',  ( 2.025059176529017346E-13, -7.102951435054648059E-15, 58.00000000000000000 ) ) ;
#293 = APPROVAL_DATE_TIME ( #268, #198 ) ;
#294 = EDGE_CURVE ( 'NONE', #25, #30, #230, .T. ) ;
#295 = DIRECTION ( 'NONE',  ( 0.0000000000000000000, 1.000000000000000000, 0.0000000000000000000 ) ) ;
#296 = DESIGN_CONTEXT ( 'detailed design', #318, 'design' ) ;
#297 = MECHANICAL_CONTEXT ( 'NONE', #313, 'mechanical' ) ;
#298 = LINE ( 'NONE', #128, #190 ) ;
#299 = PRODUCT_DEFINITION_FORMATION_WITH_SPECIFIED_SOURCE ( 'ANY', '', #195, .NOT_KNOWN. ) ;
#300 = PERSON_AND_ORGANIZATION ( #237, #274 ) ;
#301 = DIRECTION ( 'NONE',  ( 0.0000000000000000000, 1.000000000000000000, 0.0000000000000000000 ) ) ;
#302 = ORIENTED_EDGE ( 'NONE', *, *, #244, .F. ) ;
#303 = AXIS2_PLACEMENT_3D ( 'NONE', #32, #314, #197 ) ;
#304 = CONICAL_SURFACE ( 'NONE', #186, 2.224999999999993427, 1.029744258676649871 ) ;
#305 = EDGE_CURVE ( 'NONE', #312, #178, #281, .T. ) ;
#306 = CYLINDRICAL_SURFACE ( 'NONE', #250, 2.224999999999997868 ) ;
#307 = ORIENTED_EDGE ( 'NONE', *, *, #263, .F. ) ;
#308 = APPROVAL_DATE_TIME ( #125, #80 ) ;
#309 = AXIS2_PLACEMENT_3D ( 'NONE', #131, #89, #123 ) ;
#310 = CC_DESIGN_APPROVAL ( #198, ( #44 ) ) ;
#311 = CARTESIAN_POINT ( 'NONE',  ( 9.513724967120710085E-31, 2.224999999999994316, 2.724839128102853990E-16 ) ) ;
#312 = VERTEX_POINT ( 'NONE', #290 ) ;
#313 = APPLICATION_CONTEXT ( 'configuration controlled 3d designs of mechanical parts and assemblies' ) ;
#314 = DIRECTION ( 'NONE',  ( 3.491481338843133355E-15, -1.224646799147353207E-16, 1.000000000000000000 ) ) ;
#315 = EDGE_CURVE ( 'NONE', #282, #261, #269, .T. ) ;
#316 = DIRECTION ( 'NONE',  ( -3.491481338843133355E-15, 1.224646799147353207E-16, -1.000000000000000000 ) ) ;
#317 = EDGE_LOOP ( 'NONE', ( #68, #286, #74, #169 ) ) ;
#318 = APPLICATION_CONTEXT ( 'configuration controlled 3d designs of mechanical parts and assemblies' ) ;
#319 = AXIS2_PLACEMENT_3D ( 'NONE', #6, #189, #61 ) ;
#320 = EDGE_CURVE ( 'NONE', #25, #13, #64, .T. ) ;
#321 = EDGE_LOOP ( 'NONE', ( #69, #161, #307, #236 ) ) ;
#322 = DIRECTION ( 'NONE',  ( -3.491481338843133355E-15, 1.224646799147353207E-16, -1.000000000000000000 ) ) ;
#323 = FACE_OUTER_BOUND ( 'NONE', #102, .T. ) ;
#324 = CONICAL_SURFACE ( 'NONE', #83, 1.725000000000000533, 0.7853981633974476129 ) ;
#325 = CARTESIAN_POINT ( 'NONE',  ( 4.940297258651846900E-15, 2.224999999999993427, 1.336914877336332408 ) ) ;
#326 = EDGE_LOOP ( 'NONE', ( #302, #173 ) ) ;
#327 = APPROVAL ( #206, 'UNSPECIFIED' ) ;
#328 = LINE ( 'NONE', #42, #226 ) ;
#329 =( NAMED_UNIT ( * ) SI_UNIT ( $, .STERADIAN. ) SOLID_ANGLE_UNIT ( ) );
#330 = VECTOR ( 'NONE', #199, 1000.000000000000000 ) ;
#331 = CIRCLE ( 'NONE', #216, 2.224999999999995648 ) ;
#332 = APPLICATION_PROTOCOL_DEFINITION ( 'international standard', 'config_control_design', 1994, #318 ) ;
#333 = EDGE_CURVE ( 'NONE', #312, #121, #99, .T. ) ;
#334 = CARTESIAN_POINT ( 'NONE',  ( 2.027171692257546407E-13, -1.725000000000007860, 58.00000000000000000 ) ) ;
#335 = APPROVAL_PERSON_ORGANIZATION ( #76, #327, #270 ) ;
#336 = CARTESIAN_POINT ( 'NONE',  ( 2.025059176529017346E-13, 1.293542812545841923E-32, 58.00000000000000000 ) ) ;
#337 = CARTESIAN_POINT ( 'NONE',  ( 2.007601769834801742E-13, 2.224999999999993427, 57.50000000000000000 ) ) ;
ENDSEC;
END-ISO-10303-21;
