ISO-10303-21;
HEADER;
FILE_DESCRIPTION (( 'STEP AP203' ),
    '1' );
FILE_NAME ('4610.step',
    '2021-09-03T07:22:39',
    ( '' ),
    ( '' ),
    'SwSTEP 2.0',
    'SolidWorks 2019',
    '' );
FILE_SCHEMA (( 'CONFIG_CONTROL_DESIGN' ));
ENDSEC;

DATA;
#1 = CARTESIAN_POINT ( 'NONE',  ( 0.0000000000000000000, 0.0000000000000000000, 0.0000000000000000000 ) ) ;
#2 = AXIS2_PLACEMENT_3D ( 'NONE', #320, #9, #302 ) ;
#3 = ADVANCED_FACE ( 'NONE', ( #138 ), #322, .T. ) ;
#4 =( GEOMETRIC_REPRESENTATION_CONTEXT ( 3 ) GLOBAL_UNCERTAINTY_ASSIGNED_CONTEXT ( ( #240 ) ) GLOBAL_UNIT_ASSIGNED_CONTEXT ( ( #130, #24, #285 ) ) REPRESENTATION_CONTEXT ( 'NONE', 'WORKASPACE' ) );
#5 = APPROVAL_STATUS ( 'not_yet_approved' ) ;
#6 = ORIENTED_EDGE ( 'NONE', *, *, #196, .F. ) ;
#7 = ORIENTED_EDGE ( 'NONE', *, *, #281, .T. ) ;
#8 = DATE_AND_TIME ( #206, #46 ) ;
#9 = DIRECTION ( 'NONE',  ( 3.491481338843133355E-15, -1.224646799147353207E-16, 1.000000000000000000 ) ) ;
#10 = APPROVAL_PERSON_ORGANIZATION ( #78, #319, #34 ) ;
#11 = DIRECTION ( 'NONE',  ( -3.491481338843133355E-15, 1.224646799147353207E-16, -1.000000000000000000 ) ) ;
#12 = DIRECTION ( 'NONE',  ( 0.0000000000000000000, 1.000000000000000000, 0.0000000000000000000 ) ) ;
#13 = DATE_AND_TIME ( #31, #16 ) ;
#14 = FACE_OUTER_BOUND ( 'NONE', #37, .T. ) ;
#15 = CC_DESIGN_PERSON_AND_ORGANIZATION_ASSIGNMENT ( #293, #174, ( #41 ) ) ;
#16 = LOCAL_TIME ( 9, 22, 39.00000000000000000, #297 ) ;
#17 = DIRECTION ( 'NONE',  ( -3.491481338843133355E-15, 1.224646799147353207E-16, -1.000000000000000000 ) ) ;
#18 = DIRECTION ( 'NONE',  ( -3.491481338843133355E-15, 1.224646799147353207E-16, -1.000000000000000000 ) ) ;
#19 = AXIS2_PLACEMENT_3D ( 'NONE', #176, #304, #12 ) ;
#20 = PRODUCT_RELATED_PRODUCT_CATEGORY ( 'detail', '', ( #271 ) ) ;
#21 = DIRECTION ( 'NONE',  ( 4.275831445896957731E-31, 1.000000000000000000, 1.224646799147353207E-16 ) ) ;
#22 = DIRECTION ( 'NONE',  ( -3.491481338843133355E-15, 1.224646799147353207E-16, -1.000000000000000000 ) ) ;
#23 = FACE_OUTER_BOUND ( 'NONE', #159, .T. ) ;
#24 =( NAMED_UNIT ( * ) PLANE_ANGLE_UNIT ( ) SI_UNIT ( $, .RADIAN. ) );
#25 = DIRECTION ( 'NONE',  ( -3.491481338843133355E-15, 1.224646799147353207E-16, -1.000000000000000000 ) ) ;
#26 = CARTESIAN_POINT ( 'NONE',  ( 5.935518276033326704E-14, -2.081899558550500280E-15, 17.00000000000000000 ) ) ;
#27 = CC_DESIGN_PERSON_AND_ORGANIZATION_ASSIGNMENT ( #40, #202, ( #95 ) ) ;
#28 = CARTESIAN_POINT ( 'NONE',  ( 5.935518276033326704E-14, -2.081899558550500280E-15, 17.00000000000000000 ) ) ;
#29 = CLOSED_SHELL ( 'NONE', ( #207, #33, #315, #263, #87, #112 ) ) ;
#30 = CC_DESIGN_APPROVAL ( #319, ( #41 ) ) ;
#31 = CALENDAR_DATE ( 2021, 3, 9 ) ;
#32 = VERTEX_POINT ( 'NONE', #93 ) ;
#33 = ADVANCED_FACE ( 'NONE', ( #23 ), #311, .T. ) ;
#34 = APPROVAL_ROLE ( '' ) ;
#35 = CIRCLE ( 'NONE', #194, 1.899999999999994360 ) ;
#36 = SHAPE_DEFINITION_REPRESENTATION ( #144, #317 ) ;
#37 = EDGE_LOOP ( 'NONE', ( #128, #191, #7 ) ) ;
#38 = DIRECTION ( 'NONE',  ( 0.0000000000000000000, 1.000000000000000000, 0.0000000000000000000 ) ) ;
#39 = DIRECTION ( 'NONE',  ( -3.491481338843133355E-15, 1.224646799147353207E-16, -1.000000000000000000 ) ) ;
#40 = PERSON_AND_ORGANIZATION ( #333, #226 ) ;
#41 = PRODUCT_DEFINITION ( 'UNKNOWN', '', #95, #97 ) ;
#42 = ORIENTED_EDGE ( 'NONE', *, *, #259, .F. ) ;
#43 = SECURITY_CLASSIFICATION_LEVEL ( 'unclassified' ) ;
#44 = DIRECTION ( 'NONE',  ( 3.491481338843133355E-15, -1.224646799147353207E-16, 1.000000000000000000 ) ) ;
#45 = FACE_OUTER_BOUND ( 'NONE', #139, .T. ) ;
#46 = LOCAL_TIME ( 9, 22, 39.00000000000000000, #260 ) ;
#47 = DIRECTION ( 'NONE',  ( 4.275831445896958607E-31, 1.000000000000000000, 1.224646799147353207E-16 ) ) ;
#48 = ORIENTED_EDGE ( 'NONE', *, *, #99, .F. ) ;
#49 = DIRECTION ( 'NONE',  ( -3.491481338843133355E-15, 1.224646799147353207E-16, -1.000000000000000000 ) ) ;
#50 = ORIENTED_EDGE ( 'NONE', *, *, #324, .T. ) ;
#51 = CARTESIAN_POINT ( 'NONE',  ( 8.124079747204201909E-31, 1.899999999999995470, 2.326828918379965448E-16 ) ) ;
#52 = VECTOR ( 'NONE', #190, 999.9999999999998863 ) ;
#53 = ADVANCED_FACE ( 'NONE', ( #14 ), #312, .T. ) ;
#54 = DIRECTION ( 'NONE',  ( -3.491481338843133355E-15, 1.224646799147353207E-16, -1.000000000000000000 ) ) ;
#55 = CARTESIAN_POINT ( 'NONE',  ( 4.218680805140903183E-15, 1.899999999999994138, 1.141635176152373754 ) ) ;
#56 = CARTESIAN_POINT ( 'NONE',  ( 1.906348811008350686E-13, -6.686571523344547609E-15, 54.59999999999999432 ) ) ;
#57 = CIRCLE ( 'NONE', #198, 1.500000000000000888 ) ;
#58 = COORDINATED_UNIVERSAL_TIME_OFFSET ( 1, 0, .AHEAD. ) ;
#59 = DIRECTION ( 'NONE',  ( 0.0000000000000000000, 1.000000000000000000, 0.0000000000000000000 ) ) ;
#60 = COORDINATED_UNIVERSAL_TIME_OFFSET ( 1, 0, .AHEAD. ) ;
#61 = APPROVAL_STATUS ( 'not_yet_approved' ) ;
#62 = AXIS2_PLACEMENT_3D ( 'NONE', #64, #141, #279 ) ;
#63 = CALENDAR_DATE ( 2021, 3, 9 ) ;
#64 = CARTESIAN_POINT ( 'NONE',  ( 1.920314736363723472E-13, -6.735557395310442615E-15, 55.00000000000000000 ) ) ;
#65 = ORIENTED_EDGE ( 'NONE', *, *, #330, .T. ) ;
#66 = CARTESIAN_POINT ( 'NONE',  ( 3.985997913302905455E-15, -1.398099864269028966E-16, 1.141635176152373532 ) ) ;
#67 = EDGE_LOOP ( 'NONE', ( #163, #147 ) ) ;
#68 = AXIS2_PLACEMENT_3D ( 'NONE', #309, #22, #213 ) ;
#69 = CC_DESIGN_SECURITY_CLASSIFICATION ( #323, ( #95 ) ) ;
#70 = DIRECTION ( 'NONE',  ( -3.491481338843133355E-15, 1.224646799147353207E-16, -1.000000000000000000 ) ) ;
#71 = ORIENTED_EDGE ( 'NONE', *, *, #142, .T. ) ;
#72 = CARTESIAN_POINT ( 'NONE',  ( 3.985997913302905455E-15, -1.398099864269028966E-16, 1.141635176152373532 ) ) ;
#73 = DIRECTION ( 'NONE',  ( -3.491481338843133355E-15, 1.224646799147353207E-16, -1.000000000000000000 ) ) ;
#74 = EDGE_CURVE ( 'NONE', #310, #104, #327, .T. ) ;
#75 = CARTESIAN_POINT ( 'NONE',  ( 5.935518276033326704E-14, 1.899999999999994138, 17.00000000000000000 ) ) ;
#76 = CARTESIAN_POINT ( 'NONE',  ( 1.920314736363723472E-13, -6.735557395310442615E-15, 55.00000000000000000 ) ) ;
#77 = ORIENTED_EDGE ( 'NONE', *, *, #214, .T. ) ;
#78 = PERSON_AND_ORGANIZATION ( #333, #226 ) ;
#79 = FACE_OUTER_BOUND ( 'NONE', #136, .T. ) ;
#80 = VECTOR ( 'NONE', #328, 1000.000000000000000 ) ;
#81 = APPROVAL_DATE_TIME ( #8, #319 ) ;
#82 = CARTESIAN_POINT ( 'NONE',  ( 1.920314736363723472E-13, -6.735557395310442615E-15, 55.00000000000000000 ) ) ;
#83 = LINE ( 'NONE', #55, #165 ) ;
#84 = ORIENTED_EDGE ( 'NONE', *, *, #181, .T. ) ;
#85 = CC_DESIGN_DATE_AND_TIME_ASSIGNMENT ( #13, #318, ( #41 ) ) ;
#86 = VECTOR ( 'NONE', #127, 1000.000000000000000 ) ;
#87 = ADVANCED_FACE ( 'NONE', ( #145 ), #102, .T. ) ;
#88 = APPLICATION_PROTOCOL_DEFINITION ( 'international standard', 'config_control_design', 1994, #230 ) ;
#89 = AXIS2_PLACEMENT_3D ( 'NONE', #76, #169, #38 ) ;
#90 = AXIS2_PLACEMENT_3D ( 'NONE', #96, #54, #153 ) ;
#91 = ORIENTED_EDGE ( 'NONE', *, *, #223, .F. ) ;
#92 = DIRECTION ( 'NONE',  ( 4.275831445896957731E-31, 1.000000000000000000, 1.224646799147353207E-16 ) ) ;
#93 = CARTESIAN_POINT ( 'NONE',  ( 4.218680805140903183E-15, 1.899999999999994138, 1.141635176152373754 ) ) ;
#94 = CIRCLE ( 'NONE', #19, 1.899999999999996358 ) ;
#95 = PRODUCT_DEFINITION_FORMATION_WITH_SPECIFIED_SOURCE ( 'ANY', '', #271, .NOT_KNOWN. ) ;
#96 = CARTESIAN_POINT ( 'NONE',  ( 3.985997913302905455E-15, -1.398099864269028966E-16, 1.141635176152373532 ) ) ;
#97 = DESIGN_CONTEXT ( 'detailed design', #230, 'design' ) ;
#98 = FACE_OUTER_BOUND ( 'NONE', #109, .T. ) ;
#99 = EDGE_CURVE ( 'NONE', #310, #171, #148, .T. ) ;
#100 = DIRECTION ( 'NONE',  ( -3.491481338843133355E-15, 1.224646799147353207E-16, -1.000000000000000000 ) ) ;
#101 = CARTESIAN_POINT ( 'NONE',  ( 1.920314736363723472E-13, 1.499999999999994227, 55.00000000000000000 ) ) ;
#102 = CONICAL_SURFACE ( 'NONE', #89, 1.500000000000000888, 0.7853981633974426169 ) ;
#103 = FACE_OUTER_BOUND ( 'NONE', #254, .T. ) ;
#104 = VERTEX_POINT ( 'NONE', #122 ) ;
#105 = DATE_TIME_ROLE ( 'classification_date' ) ;
#106 = CALENDAR_DATE ( 2021, 3, 9 ) ;
#107 = CONICAL_SURFACE ( 'NONE', #2, 1.899999999999994360, 1.029744258676649871 ) ;
#108 = LOCAL_TIME ( 9, 22, 39.00000000000000000, #135 ) ;
#109 = EDGE_LOOP ( 'NONE', ( #264, #203, #247, #91 ) ) ;
#110 = PERSON_AND_ORGANIZATION ( #333, #226 ) ;
#111 = DIRECTION ( 'NONE',  ( -3.491481338843133355E-15, 1.224646799147353207E-16, -1.000000000000000000 ) ) ;
#112 = ADVANCED_FACE ( 'NONE', ( #115 ), #325, .F. ) ;
#113 = VERTEX_POINT ( 'NONE', #253 ) ;
#114 = ORIENTED_EDGE ( 'NONE', *, *, #256, .F. ) ;
#115 = FACE_OUTER_BOUND ( 'NONE', #118, .T. ) ;
#116 = CARTESIAN_POINT ( 'NONE',  ( 0.0000000000000000000, 0.0000000000000000000, 0.0000000000000000000 ) ) ;
#117 = EDGE_CURVE ( 'NONE', #234, #229, #276, .T. ) ;
#118 = EDGE_LOOP ( 'NONE', ( #155, #274 ) ) ;
#119 = DIRECTION ( 'NONE',  ( 0.0000000000000000000, 1.000000000000000000, 0.0000000000000000000 ) ) ;
#120 = PERSON_AND_ORGANIZATION_ROLE ( 'creator' ) ;
#121 = AXIS2_PLACEMENT_3D ( 'NONE', #290, #294, #59 ) ;
#122 = CARTESIAN_POINT ( 'NONE',  ( 1.252277148224221103E-13, -1.899999999999998579, 17.00000000000000000 ) ) ;
#123 = PLANE ( 'NONE',  #212 ) ;
#124 = CARTESIAN_POINT ( 'NONE',  ( 3.985997913302904666E-15, -1.899999999999994582, 1.141635176152373310 ) ) ;
#125 = EDGE_CURVE ( 'NONE', #104, #241, #186, .T. ) ;
#126 = ORIENTED_EDGE ( 'NONE', *, *, #74, .F. ) ;
#127 = DIRECTION ( 'NONE',  ( 1.798245827342159528E-15, -0.8571673007021100021, 0.5150380749100580413 ) ) ;
#128 = ORIENTED_EDGE ( 'NONE', *, *, #181, .F. ) ;
#129 = CLOSED_SHELL ( 'NONE', ( #298, #167, #53, #3, #140 ) ) ;
#130 =( LENGTH_UNIT ( ) NAMED_UNIT ( * ) SI_UNIT ( .MILLI., .METRE. ) );
#131 = CC_DESIGN_PERSON_AND_ORGANIZATION_ASSIGNMENT ( #316, #252, ( #271 ) ) ;
#132 = APPROVAL ( #228, 'UNSPECIFIED' ) ;
#133 = CARTESIAN_POINT ( 'NONE',  ( 0.0000000000000000000, 0.0000000000000000000, 0.0000000000000000000 ) ) ;
#134 = CARTESIAN_POINT ( 'NONE',  ( 1.252277148224220093E-13, -1.900000000000007461, 54.59999999999999432 ) ) ;
#135 = COORDINATED_UNIVERSAL_TIME_OFFSET ( 1, 0, .AHEAD. ) ;
#136 = EDGE_LOOP ( 'NONE', ( #251, #84, #50 ) ) ;
#137 = APPROVAL_ROLE ( '' ) ;
#138 = FACE_OUTER_BOUND ( 'NONE', #280, .T. ) ;
#139 = EDGE_LOOP ( 'NONE', ( #249, #231, #199, #114 ) ) ;
#140 = ADVANCED_FACE ( 'NONE', ( #200 ), #123, .T. ) ;
#141 = DIRECTION ( 'NONE',  ( -3.491481338843133355E-15, 1.224646799147353207E-16, -1.000000000000000000 ) ) ;
#142 = EDGE_CURVE ( 'NONE', #258, #236, #143, .T. ) ;
#143 = CIRCLE ( 'NONE', #68, 1.500000000000000888 ) ;
#144 = PRODUCT_DEFINITION_SHAPE ( 'NONE', 'NONE',  #41 ) ;
#145 = FACE_OUTER_BOUND ( 'NONE', #173, .T. ) ;
#146 = DIRECTION ( 'NONE',  ( 0.0000000000000000000, 1.000000000000000000, 0.0000000000000000000 ) ) ;
#147 = ORIENTED_EDGE ( 'NONE', *, *, #117, .F. ) ;
#148 = CIRCLE ( 'NONE', #248, 1.900000000000000799 ) ;
#149 = EDGE_CURVE ( 'NONE', #209, #113, #243, .T. ) ;
#150 = DIRECTION ( 'NONE',  ( -4.275831445896958607E-31, -1.000000000000000000, -1.224646799147353207E-16 ) ) ;
#151 = DIRECTION ( 'NONE',  ( -4.275831445896958607E-31, -1.000000000000000000, -1.224646799147353207E-16 ) ) ;
#152 = AXIS2_PLACEMENT_3D ( 'NONE', #233, #17, #189 ) ;
#153 = DIRECTION ( 'NONE',  ( 4.054589356604718952E-31, 1.000000000000000000, 1.141265444721586962E-16 ) ) ;
#154 = CARTESIAN_POINT ( 'NONE',  ( 0.0000000000000000000, 0.0000000000000000000, 0.0000000000000000000 ) ) ;
#155 = ORIENTED_EDGE ( 'NONE', *, *, #162, .F. ) ;
#156 = DIRECTION ( 'NONE',  ( 0.0000000000000000000, 1.000000000000000000, 0.0000000000000000000 ) ) ;
#157 = AXIS2_PLACEMENT_3D ( 'NONE', #154, #25, #92 ) ;
#158 = DIRECTION ( 'NONE',  ( 0.0000000000000000000, 1.000000000000000000, 0.0000000000000000000 ) ) ;
#159 = EDGE_LOOP ( 'NONE', ( #77, #332, #6, #205 ) ) ;
#160 = ORIENTED_EDGE ( 'NONE', *, *, #223, .T. ) ;
#161 = PERSON_AND_ORGANIZATION ( #333, #226 ) ;
#162 = EDGE_CURVE ( 'NONE', #236, #258, #57, .T. ) ;
#163 = ORIENTED_EDGE ( 'NONE', *, *, #300, .F. ) ;
#164 = DATE_AND_TIME ( #106, #232 ) ;
#165 = VECTOR ( 'NONE', #292, 1000.000000000000114 ) ;
#166 = AXIS2_PLACEMENT_3D ( 'NONE', #133, #73, #270 ) ;
#167 = ADVANCED_FACE ( 'NONE', ( #79 ), #107, .T. ) ;
#168 = MANIFOLD_SOLID_BREP ( 'Corps-Déplacer/Copier1[2]', #129 ) ;
#169 = DIRECTION ( 'NONE',  ( -3.491481338843133355E-15, 1.224646799147353207E-16, -1.000000000000000000 ) ) ;
#170 = CARTESIAN_POINT ( 'NONE',  ( 2.326828918379961011E-16, -1.899999999999998579, -2.326828918379977281E-16 ) ) ;
#171 = VERTEX_POINT ( 'NONE', #282 ) ;
#172 = DATE_AND_TIME ( #237, #313 ) ;
#173 = EDGE_LOOP ( 'NONE', ( #42, #71, #321, #48 ) ) ;
#174 = PERSON_AND_ORGANIZATION_ROLE ( 'creator' ) ;
#175 = DIRECTION ( 'NONE',  ( 3.491481338843133355E-15, -1.224646799147353207E-16, 1.000000000000000000 ) ) ;
#176 = CARTESIAN_POINT ( 'NONE',  ( 5.935518276033326704E-14, -2.081899558550500280E-15, 17.00000000000000000 ) ) ;
#177 = CIRCLE ( 'NONE', #90, 1.899999999999994360 ) ;
#178 = CC_DESIGN_APPROVAL ( #132, ( #323 ) ) ;
#179 = DIRECTION ( 'NONE',  ( -4.054589356604718952E-31, -1.000000000000000000, -1.141265444721586962E-16 ) ) ;
#180 = MANIFOLD_SOLID_BREP ( 'Corps-Déplacer/Copier1[1]', #29 ) ;
#181 = EDGE_CURVE ( 'NONE', #209, #32, #83, .T. ) ;
#182 = CARTESIAN_POINT ( 'NONE',  ( 3.190327322865605952E-14, -1.899999999999998579, 17.00000000000000000 ) ) ;
#183 = ORIENTED_EDGE ( 'NONE', *, *, #196, .T. ) ;
#184 = LINE ( 'NONE', #273, #250 ) ;
#185 = ORIENTED_EDGE ( 'NONE', *, *, #125, .T. ) ;
#186 = CIRCLE ( 'NONE', #121, 1.899999999999996358 ) ;
#187 = APPLICATION_PROTOCOL_DEFINITION ( 'international standard', 'config_control_design', 1994, #211 ) ;
#188 = LINE ( 'NONE', #101, #80 ) ;
#189 = DIRECTION ( 'NONE',  ( 4.275831445896958607E-31, 1.000000000000000000, 1.224646799147353207E-16 ) ) ;
#190 = DIRECTION ( 'NONE',  ( -2.382254525458730880E-15, -0.7071067811865434649, -0.7071067811865516806 ) ) ;
#191 = ORIENTED_EDGE ( 'NONE', *, *, #149, .T. ) ;
#192 = VECTOR ( 'NONE', #70, 1000.000000000000000 ) ;
#193 = APPROVAL_DATE_TIME ( #164, #132 ) ;
#194 = AXIS2_PLACEMENT_3D ( 'NONE', #72, #18, #269 ) ;
#195 = APPROVAL_DATE_TIME ( #295, #326 ) ;
#196 = EDGE_CURVE ( 'NONE', #241, #104, #94, .T. ) ;
#197 = PERSON_AND_ORGANIZATION_ROLE ( 'classification_officer' ) ;
#198 = AXIS2_PLACEMENT_3D ( 'NONE', #82, #111, #119 ) ;
#199 = ORIENTED_EDGE ( 'NONE', *, *, #214, .F. ) ;
#200 = FACE_OUTER_BOUND ( 'NONE', #67, .T. ) ;
#201 = ORIENTED_EDGE ( 'NONE', *, *, #99, .T. ) ;
#202 = PERSON_AND_ORGANIZATION_ROLE ( 'design_supplier' ) ;
#203 = ORIENTED_EDGE ( 'NONE', *, *, #220, .T. ) ;
#204 = AXIS2_PLACEMENT_3D ( 'NONE', #56, #244, #156 ) ;
#205 = ORIENTED_EDGE ( 'NONE', *, *, #330, .F. ) ;
#206 = CALENDAR_DATE ( 2021, 3, 9 ) ;
#207 = ADVANCED_FACE ( 'NONE', ( #45 ), #272, .T. ) ;
#208 = CARTESIAN_POINT ( 'NONE',  ( 5.935518276033326704E-14, 1.424771793528758706E-32, 17.00000000000000000 ) ) ;
#209 = VERTEX_POINT ( 'NONE', #1 ) ;
#210 = CC_DESIGN_DATE_AND_TIME_ASSIGNMENT ( #172, #105, ( #323 ) ) ;
#211 = APPLICATION_CONTEXT ( 'configuration controlled 3d designs of mechanical parts and assemblies' ) ;
#212 = AXIS2_PLACEMENT_3D ( 'NONE', #208, #175, #150 ) ;
#213 = DIRECTION ( 'NONE',  ( 0.0000000000000000000, 1.000000000000000000, 0.0000000000000000000 ) ) ;
#214 = EDGE_CURVE ( 'NONE', #171, #310, #224, .T. ) ;
#215 = CARTESIAN_POINT ( 'NONE',  ( 5.935518276033326704E-14, 1.899999999999994138, 17.00000000000000000 ) ) ;
#216 = CARTESIAN_POINT ( 'NONE',  ( 1.922151706562444373E-13, -1.500000000000007550, 55.00000000000000000 ) ) ;
#217 = AXIS2_PLACEMENT_3D ( 'NONE', #116, #268, #47 ) ;
#218 = AXIS2_PLACEMENT_3D ( 'NONE', #246, #221, #151 ) ;
#219 = FACE_OUTER_BOUND ( 'NONE', #242, .T. ) ;
#220 = EDGE_CURVE ( 'NONE', #234, #113, #307, .T. ) ;
#221 = DIRECTION ( 'NONE',  ( 3.491481338843133355E-15, -1.224646799147353207E-16, 1.000000000000000000 ) ) ;
#222 = DIRECTION ( 'NONE',  ( 0.0000000000000000000, 0.0000000000000000000, 1.000000000000000000 ) ) ;
#223 = EDGE_CURVE ( 'NONE', #229, #32, #288, .T. ) ;
#224 = CIRCLE ( 'NONE', #204, 1.900000000000000799 ) ;
#225 = CARTESIAN_POINT ( 'NONE',  ( 0.0000000000000000000, 0.0000000000000000000, 0.0000000000000000000 ) ) ;
#226 = ORGANIZATION ( 'UNSPECIFIED', 'UNSPECIFIED', '' ) ;
#227 = ORIENTED_EDGE ( 'NONE', *, *, #125, .F. ) ;
#228 = APPROVAL_STATUS ( 'not_yet_approved' ) ;
#229 = VERTEX_POINT ( 'NONE', #75 ) ;
#230 = APPLICATION_CONTEXT ( 'configuration controlled 3d designs of mechanical parts and assemblies' ) ;
#231 = ORIENTED_EDGE ( 'NONE', *, *, #259, .T. ) ;
#232 = LOCAL_TIME ( 9, 22, 39.00000000000000000, #58 ) ;
#233 = CARTESIAN_POINT ( 'NONE',  ( 1.920314736363723472E-13, 1.124819836996383900E-32, 55.00000000000000000 ) ) ;
#234 = VERTEX_POINT ( 'NONE', #182 ) ;
#235 = PERSON_AND_ORGANIZATION ( #333, #226 ) ;
#236 = VERTEX_POINT ( 'NONE', #265 ) ;
#237 = CALENDAR_DATE ( 2021, 3, 9 ) ;
#238 = AXIS2_PLACEMENT_3D ( 'NONE', #66, #44, #179 ) ;
#239 = AXIS2_PLACEMENT_3D ( 'NONE', #308, #49, #21 ) ;
#240 = UNCERTAINTY_MEASURE_WITH_UNIT (LENGTH_MEASURE( 1.000000000000000082E-05 ), #130, 'distance_accuracy_value', 'NONE');
#241 = VERTEX_POINT ( 'NONE', #215 ) ;
#242 = EDGE_LOOP ( 'NONE', ( #126, #201, #65, #227 ) ) ;
#243 = LINE ( 'NONE', #124, #86 ) ;
#244 = DIRECTION ( 'NONE',  ( -3.491481338843133355E-15, 1.224646799147353207E-16, -1.000000000000000000 ) ) ;
#245 = CARTESIAN_POINT ( 'NONE',  ( 1.915413673244587652E-13, -1.500000000000007550, 55.00000000000000000 ) ) ;
#246 = CARTESIAN_POINT ( 'NONE',  ( 5.935518276033326704E-14, 1.424771793528758706E-32, 17.00000000000000000 ) ) ;
#247 = ORIENTED_EDGE ( 'NONE', *, *, #324, .F. ) ;
#248 = AXIS2_PLACEMENT_3D ( 'NONE', #305, #11, #146 ) ;
#249 = ORIENTED_EDGE ( 'NONE', *, *, #162, .T. ) ;
#250 = VECTOR ( 'NONE', #267, 1000.000000000000000 ) ;
#251 = ORIENTED_EDGE ( 'NONE', *, *, #149, .F. ) ;
#252 = PERSON_AND_ORGANIZATION_ROLE ( 'design_owner' ) ;
#253 = CARTESIAN_POINT ( 'NONE',  ( 3.985997913302904666E-15, -1.899999999999994582, 1.141635176152373310 ) ) ;
#254 = EDGE_LOOP ( 'NONE', ( #183, #185 ) ) ;
#255 = AXIS2_PLACEMENT_3D ( 'NONE', #26, #286, #334 ) ;
#256 = EDGE_CURVE ( 'NONE', #236, #171, #188, .T. ) ;
#257 = APPROVAL_PERSON_ORGANIZATION ( #161, #132, #137 ) ;
#258 = VERTEX_POINT ( 'NONE', #245 ) ;
#259 = EDGE_CURVE ( 'NONE', #258, #310, #284, .T. ) ;
#260 = COORDINATED_UNIVERSAL_TIME_OFFSET ( 1, 0, .AHEAD. ) ;
#261 = CC_DESIGN_APPROVAL ( #326, ( #95 ) ) ;
#262 = ORIENTED_EDGE ( 'NONE', *, *, #220, .F. ) ;
#263 = ADVANCED_FACE ( 'NONE', ( #219 ), #289, .T. ) ;
#264 = ORIENTED_EDGE ( 'NONE', *, *, #300, .T. ) ;
#265 = CARTESIAN_POINT ( 'NONE',  ( 1.920314736363723472E-13, 1.499999999999994227, 55.00000000000000000 ) ) ;
#266 = AXIS2_PLACEMENT_3D ( 'NONE', #28, #335, #158 ) ;
#267 = DIRECTION ( 'NONE',  ( -3.491481338843133355E-15, 1.224646799147353207E-16, -1.000000000000000000 ) ) ;
#268 = DIRECTION ( 'NONE',  ( -3.491481338843133355E-15, 1.224646799147353207E-16, -1.000000000000000000 ) ) ;
#269 = DIRECTION ( 'NONE',  ( 4.054589356604718952E-31, 1.000000000000000000, 1.141265444721586962E-16 ) ) ;
#270 = DIRECTION ( 'NONE',  ( 4.275831445896958607E-31, 1.000000000000000000, 1.224646799147353207E-16 ) ) ;
#271 = PRODUCT ( '4610', '4610', '', ( #337 ) ) ;
#272 = CONICAL_SURFACE ( 'NONE', #62, 1.500000000000000888, 0.7853981633974426169 ) ;
#273 = CARTESIAN_POINT ( 'NONE',  ( 8.124079747204214171E-31, 1.899999999999998579, 2.326828918379969393E-16 ) ) ;
#274 = ORIENTED_EDGE ( 'NONE', *, *, #142, .F. ) ;
#275 = DIRECTION ( 'NONE',  ( 1.000000000000000000, 0.0000000000000000000, 0.0000000000000000000 ) ) ;
#276 = CIRCLE ( 'NONE', #255, 1.899999999999996358 ) ;
#277 = AXIS2_PLACEMENT_3D ( 'NONE', #225, #222, #275 ) ;
#278 = CC_DESIGN_PERSON_AND_ORGANIZATION_ASSIGNMENT ( #336, #120, ( #95 ) ) ;
#279 = DIRECTION ( 'NONE',  ( 0.0000000000000000000, 1.000000000000000000, 0.0000000000000000000 ) ) ;
#280 = EDGE_LOOP ( 'NONE', ( #262, #299, #160, #296 ) ) ;
#281 = EDGE_CURVE ( 'NONE', #113, #32, #177, .T. ) ;
#282 = CARTESIAN_POINT ( 'NONE',  ( 1.906348811008350686E-13, 1.899999999999994138, 54.59999999999999432 ) ) ;
#283 = CIRCLE ( 'NONE', #266, 1.899999999999996358 ) ;
#284 = LINE ( 'NONE', #216, #52 ) ;
#285 =( NAMED_UNIT ( * ) SI_UNIT ( $, .STERADIAN. ) SOLID_ANGLE_UNIT ( ) );
#286 = DIRECTION ( 'NONE',  ( -3.491481338843133355E-15, 1.224646799147353207E-16, -1.000000000000000000 ) ) ;
#287 = APPROVAL_PERSON_ORGANIZATION ( #110, #326, #301 ) ;
#288 = LINE ( 'NONE', #51, #192 ) ;
#289 = CYLINDRICAL_SURFACE ( 'NONE', #239, 1.899999999999998579 ) ;
#290 = CARTESIAN_POINT ( 'NONE',  ( 5.935518276033326704E-14, -2.081899558550500280E-15, 17.00000000000000000 ) ) ;
#291 = PLANE ( 'NONE',  #218 ) ;
#292 = DIRECTION ( 'NONE',  ( 1.903218546456021928E-15, 0.8571673007021098911, 0.5150380749100583744 ) ) ;
#293 = PERSON_AND_ORGANIZATION ( #333, #226 ) ;
#294 = DIRECTION ( 'NONE',  ( -3.491481338843133355E-15, 1.224646799147353207E-16, -1.000000000000000000 ) ) ;
#295 = DATE_AND_TIME ( #63, #108 ) ;
#296 = ORIENTED_EDGE ( 'NONE', *, *, #281, .F. ) ;
#297 = COORDINATED_UNIVERSAL_TIME_OFFSET ( 1, 0, .AHEAD. ) ;
#298 = ADVANCED_FACE ( 'NONE', ( #98 ), #314, .T. ) ;
#299 = ORIENTED_EDGE ( 'NONE', *, *, #117, .T. ) ;
#300 = EDGE_CURVE ( 'NONE', #229, #234, #283, .T. ) ;
#301 = APPROVAL_ROLE ( '' ) ;
#302 = DIRECTION ( 'NONE',  ( -4.054589356604718952E-31, -1.000000000000000000, -1.141265444721586962E-16 ) ) ;
#303 = CC_DESIGN_PERSON_AND_ORGANIZATION_ASSIGNMENT ( #235, #197, ( #323 ) ) ;
#304 = DIRECTION ( 'NONE',  ( -3.491481338843133355E-15, 1.224646799147353207E-16, -1.000000000000000000 ) ) ;
#305 = CARTESIAN_POINT ( 'NONE',  ( 1.906348811008350686E-13, -6.686571523344547609E-15, 54.59999999999999432 ) ) ;
#306 = VECTOR ( 'NONE', #39, 1000.000000000000000 ) ;
#307 = LINE ( 'NONE', #331, #329 ) ;
#308 = CARTESIAN_POINT ( 'NONE',  ( 0.0000000000000000000, 0.0000000000000000000, 0.0000000000000000000 ) ) ;
#309 = CARTESIAN_POINT ( 'NONE',  ( 1.920314736363723472E-13, -6.735557395310442615E-15, 55.00000000000000000 ) ) ;
#310 = VERTEX_POINT ( 'NONE', #134 ) ;
#311 = CYLINDRICAL_SURFACE ( 'NONE', #157, 1.899999999999998579 ) ;
#312 = CONICAL_SURFACE ( 'NONE', #238, 1.899999999999994360, 1.029744258676649871 ) ;
#313 = LOCAL_TIME ( 9, 22, 39.00000000000000000, #60 ) ;
#314 = CYLINDRICAL_SURFACE ( 'NONE', #166, 1.899999999999995470 ) ;
#315 = ADVANCED_FACE ( 'NONE', ( #103 ), #291, .F. ) ;
#316 = PERSON_AND_ORGANIZATION ( #333, #226 ) ;
#317 = ADVANCED_BREP_SHAPE_REPRESENTATION ( '4610', ( #180, #168, #277 ), #4 ) ;
#318 = DATE_TIME_ROLE ( 'creation_date' ) ;
#319 = APPROVAL ( #5, 'UNSPECIFIED' ) ;
#320 = CARTESIAN_POINT ( 'NONE',  ( 3.985997913302905455E-15, -1.398099864269028966E-16, 1.141635176152373532 ) ) ;
#321 = ORIENTED_EDGE ( 'NONE', *, *, #256, .T. ) ;
#322 = CYLINDRICAL_SURFACE ( 'NONE', #217, 1.899999999999995470 ) ;
#323 = SECURITY_CLASSIFICATION ( '', '', #43 ) ;
#324 = EDGE_CURVE ( 'NONE', #32, #113, #35, .T. ) ;
#325 = PLANE ( 'NONE',  #152 ) ;
#326 = APPROVAL ( #61, 'UNSPECIFIED' ) ;
#327 = LINE ( 'NONE', #170, #306 ) ;
#328 = DIRECTION ( 'NONE',  ( -2.468850131082279149E-15, 0.7071067811865435759, -0.7071067811865514585 ) ) ;
#329 = VECTOR ( 'NONE', #100, 1000.000000000000000 ) ;
#330 = EDGE_CURVE ( 'NONE', #171, #241, #184, .T. ) ;
#331 = CARTESIAN_POINT ( 'NONE',  ( 2.326828918379957560E-16, -1.899999999999995470, -2.326828918379973337E-16 ) ) ;
#332 = ORIENTED_EDGE ( 'NONE', *, *, #74, .T. ) ;
#333 = PERSON ( 'UNSPECIFIED', 'UNSPECIFIED', 'UNSPECIFIED', ('UNSPECIFIED'), ('UNSPECIFIED'), ('UNSPECIFIED') ) ;
#334 = DIRECTION ( 'NONE',  ( 0.0000000000000000000, 1.000000000000000000, 0.0000000000000000000 ) ) ;
#335 = DIRECTION ( 'NONE',  ( -3.491481338843133355E-15, 1.224646799147353207E-16, -1.000000000000000000 ) ) ;
#336 = PERSON_AND_ORGANIZATION ( #333, #226 ) ;
#337 = MECHANICAL_CONTEXT ( 'NONE', #211, 'mechanical' ) ;
ENDSEC;
END-ISO-10303-21;
