ISO-10303-21;
HEADER;
FILE_DESCRIPTION (( 'STEP AP203' ),
    '1' );
FILE_NAME ('461.step',
    '2021-10-07T13:48:14',
    ( '' ),
    ( '' ),
    'SwSTEP 2.0',
    'SolidWorks 2019',
    '' );
FILE_SCHEMA (( 'CONFIG_CONTROL_DESIGN' ));
ENDSEC;

DATA;
#1 = DIRECTION ( 'NONE',  ( 4.275831445896958607E-31, 1.000000000000000000, 1.224646799147353207E-16 ) ) ;
#2 = PRODUCT_DEFINITION ( 'UNKNOWN', '', #221, #107 ) ;
#3 = PLANE ( 'NONE',  #206 ) ;
#4 = ORIENTED_EDGE ( 'NONE', *, *, #197, .F. ) ;
#5 = ADVANCED_FACE ( 'NONE', ( #212, #94 ), #122, .T. ) ;
#6 = EDGE_LOOP ( 'NONE', ( #191 ) ) ;
#7 = CONICAL_SURFACE ( 'NONE', #130, 0.7499999999999937828, 1.029744258676649649 ) ;
#8 = EDGE_LOOP ( 'NONE', ( #78 ) ) ;
#9 = EDGE_CURVE ( 'NONE', #59, #59, #180, .T. ) ;
#10 = ADVANCED_FACE ( 'NONE', ( #20 ), #3, .F. ) ;
#11 = CARTESIAN_POINT ( 'NONE',  ( 1.573420228935348978E-15, -5.518815253693504965E-17, 0.4506454642706713143 ) ) ;
#12 = DIRECTION ( 'NONE',  ( -4.275831445896958607E-31, -1.000000000000000000, -1.224646799147353207E-16 ) ) ;
#13 =( GEOMETRIC_REPRESENTATION_CONTEXT ( 3 ) GLOBAL_UNCERTAINTY_ASSIGNED_CONTEXT ( ( #123 ) ) GLOBAL_UNIT_ASSIGNED_CONTEXT ( ( #196, #164, #15 ) ) REPRESENTATION_CONTEXT ( 'NONE', 'WORKASPACE' ) );
#14 = CC_DESIGN_APPROVAL ( #135, ( #2 ) ) ;
#15 =( NAMED_UNIT ( * ) SI_UNIT ( $, .STERADIAN. ) SOLID_ANGLE_UNIT ( ) );
#16 = CYLINDRICAL_SURFACE ( 'NONE', #213, 0.9999999999999995559 ) ;
#17 = PERSON_AND_ORGANIZATION_ROLE ( 'classification_officer' ) ;
#18 = CIRCLE ( 'NONE', #113, 0.7499999999999942268 ) ;
#19 = DIRECTION ( 'NONE',  ( -3.491481338843133355E-15, 1.224646799147353207E-16, -1.000000000000000000 ) ) ;
#20 = FACE_OUTER_BOUND ( 'NONE', #21, .T. ) ;
#21 = EDGE_LOOP ( 'NONE', ( #137 ) ) ;
#22 = DIRECTION ( 'NONE',  ( 3.491481338843133355E-15, -1.224646799147353207E-16, 1.000000000000000000 ) ) ;
#23 = EDGE_LOOP ( 'NONE', ( #209 ) ) ;
#24 = ADVANCED_FACE ( 'NONE', ( #77, #139 ), #75, .T. ) ;
#25 = ADVANCED_FACE ( 'NONE', ( #65, #111 ), #26, .T. ) ;
#26 = CONICAL_SURFACE ( 'NONE', #46, 0.9999999999999978906, 0.5235987755982943748 ) ;
#27 = CC_DESIGN_SECURITY_CLASSIFICATION ( #99, ( #221 ) ) ;
#28 = CC_DESIGN_PERSON_AND_ORGANIZATION_ASSIGNMENT ( #188, #189, ( #221 ) ) ;
#29 = CARTESIAN_POINT ( 'NONE',  ( 4.061644676318185836E-14, -1.424633176981282202E-15, 11.63301270189223047 ) ) ;
#30 = CALENDAR_DATE ( 2021, 7, 10 ) ;
#31 = MANIFOLD_SOLID_BREP ( 'Corps-Déplacer/Copier1[1]', #182 ) ;
#32 = DIRECTION ( 'NONE',  ( 1.000000000000000000, 0.0000000000000000000, 0.0000000000000000000 ) ) ;
#33 = CARTESIAN_POINT ( 'NONE',  ( 3.910459099504309358E-14, -1.371604415045035513E-15, 11.19999999999999929 ) ) ;
#34 = COORDINATED_UNIVERSAL_TIME_OFFSET ( 1, 0, .AHEAD. ) ;
#35 = FACE_OUTER_BOUND ( 'NONE', #42, .T. ) ;
#36 = PERSON_AND_ORGANIZATION ( #210, #39 ) ;
#37 = PERSON_AND_ORGANIZATION ( #210, #39 ) ;
#38 = VERTEX_POINT ( 'NONE', #90 ) ;
#39 = ORGANIZATION ( 'UNSPECIFIED', 'UNSPECIFIED', '' ) ;
#40 = ADVANCED_BREP_SHAPE_REPRESENTATION ( '461', ( #31, #175, #159 ), #13 ) ;
#41 = APPLICATION_CONTEXT ( 'configuration controlled 3d designs of mechanical parts and assemblies' ) ;
#42 = EDGE_LOOP ( 'NONE', ( #4 ) ) ;
#43 = EDGE_LOOP ( 'NONE', ( #66 ) ) ;
#44 = DIRECTION ( 'NONE',  ( 0.0000000000000000000, 1.000000000000000000, 0.0000000000000000000 ) ) ;
#45 = ORIENTED_EDGE ( 'NONE', *, *, #100, .T. ) ;
#46 = AXIS2_PLACEMENT_3D ( 'NONE', #178, #22, #185 ) ;
#47 = DIRECTION ( 'NONE',  ( 0.0000000000000000000, 1.000000000000000000, 0.0000000000000000000 ) ) ;
#48 = CARTESIAN_POINT ( 'NONE',  ( 1.573420228935348978E-15, -5.518815253693504965E-17, 0.4506454642706713143 ) ) ;
#49 = CARTESIAN_POINT ( 'NONE',  ( 1.319779946082704535E-13, 0.9999999999999965583, 37.79999999999999716 ) ) ;
#50 = CARTESIAN_POINT ( 'NONE',  ( 3.910459099504309358E-14, 5.624099184981901712E-33, 11.19999999999999929 ) ) ;
#51 = VERTEX_POINT ( 'NONE', #96 ) ;
#52 = DIRECTION ( 'NONE',  ( -4.275831445896958607E-31, -1.000000000000000000, -1.224646799147353207E-16 ) ) ;
#53 = CC_DESIGN_PERSON_AND_ORGANIZATION_ASSIGNMENT ( #219, #217, ( #146 ) ) ;
#54 = FACE_OUTER_BOUND ( 'NONE', #195, .T. ) ;
#55 = AXIS2_PLACEMENT_3D ( 'NONE', #68, #115, #84 ) ;
#56 = LOCAL_TIME ( 15, 48, 14.00000000000000000, #34 ) ;
#57 = ADVANCED_FACE ( 'NONE', ( #54 ), #181, .T. ) ;
#58 = APPROVAL_DATE_TIME ( #133, #135 ) ;
#59 = VERTEX_POINT ( 'NONE', #116 ) ;
#60 = APPROVAL_STATUS ( 'not_yet_approved' ) ;
#61 = CIRCLE ( 'NONE', #200, 0.8000000000000010436 ) ;
#62 = APPROVAL_ROLE ( '' ) ;
#63 = CALENDAR_DATE ( 2021, 7, 10 ) ;
#64 = DIRECTION ( 'NONE',  ( -3.491481338843133355E-15, 1.224646799147353207E-16, -1.000000000000000000 ) ) ;
#65 = FACE_BOUND ( 'NONE', #92, .T. ) ;
#66 = ORIENTED_EDGE ( 'NONE', *, *, #9, .F. ) ;
#67 = CARTESIAN_POINT ( 'NONE',  ( 3.910459099504309358E-14, 0.7499999999999928946, 11.19999999999999929 ) ) ;
#68 = CARTESIAN_POINT ( 'NONE',  ( 1.319779946082704535E-13, -4.629164900776995227E-15, 37.79999999999999716 ) ) ;
#69 = APPLICATION_PROTOCOL_DEFINITION ( 'international standard', 'config_control_design', 1994, #114 ) ;
#70 = AXIS2_PLACEMENT_3D ( 'NONE', #48, #174, #179 ) ;
#71 = APPROVAL_PERSON_ORGANIZATION ( #102, #135, #149 ) ;
#72 = COORDINATED_UNIVERSAL_TIME_OFFSET ( 1, 0, .AHEAD. ) ;
#73 = CALENDAR_DATE ( 2021, 7, 10 ) ;
#74 = SECURITY_CLASSIFICATION_LEVEL ( 'unclassified' ) ;
#75 = CONICAL_SURFACE ( 'NONE', #134, 0.8000000000000010436, 0.7853981633974516097 ) ;
#76 = LOCAL_TIME ( 15, 48, 14.00000000000000000, #147 ) ;
#77 = FACE_OUTER_BOUND ( 'NONE', #6, .T. ) ;
#78 = ORIENTED_EDGE ( 'NONE', *, *, #160, .T. ) ;
#79 = EDGE_LOOP ( 'NONE', ( #177 ) ) ;
#80 = APPROVAL_PERSON_ORGANIZATION ( #218, #187, #62 ) ;
#81 = ORIENTED_EDGE ( 'NONE', *, *, #161, .F. ) ;
#82 = APPROVAL_PERSON_ORGANIZATION ( #166, #152, #136 ) ;
#83 = CARTESIAN_POINT ( 'NONE',  ( 0.0000000000000000000, 0.0000000000000000000, 0.0000000000000000000 ) ) ;
#84 = DIRECTION ( 'NONE',  ( 0.0000000000000000000, 1.000000000000000000, 0.0000000000000000000 ) ) ;
#85 = PERSON_AND_ORGANIZATION_ROLE ( 'creator' ) ;
#86 = APPROVAL_STATUS ( 'not_yet_approved' ) ;
#87 = CARTESIAN_POINT ( 'NONE',  ( 0.0000000000000000000, 0.0000000000000000000, 0.0000000000000000000 ) ) ;
#88 = DIRECTION ( 'NONE',  ( -3.491481338843133355E-15, 1.224646799147353207E-16, -1.000000000000000000 ) ) ;
#89 = DATE_TIME_ROLE ( 'classification_date' ) ;
#90 = CARTESIAN_POINT ( 'NONE',  ( 1.326762908760390423E-13, 0.7999999999999963807, 38.00000000000000000 ) ) ;
#91 = CC_DESIGN_APPROVAL ( #152, ( #99 ) ) ;
#92 = EDGE_LOOP ( 'NONE', ( #81 ) ) ;
#93 = CIRCLE ( 'NONE', #103, 0.7499999999999942268 ) ;
#94 = FACE_OUTER_BOUND ( 'NONE', #8, .T. ) ;
#95 = PRODUCT_DEFINITION_SHAPE ( 'NONE', 'NONE',  #2 ) ;
#96 = CARTESIAN_POINT ( 'NONE',  ( 4.061644676318185836E-14, 0.9999999999999963363, 11.63301270189223047 ) ) ;
#97 = VERTEX_POINT ( 'NONE', #49 ) ;
#98 = CIRCLE ( 'NONE', #55, 1.000000000000001110 ) ;
#99 = SECURITY_CLASSIFICATION ( '', '', #74 ) ;
#100 = EDGE_CURVE ( 'NONE', #38, #38, #61, .T. ) ;
#101 = SHAPE_DEFINITION_REPRESENTATION ( #95, #40 ) ;
#102 = PERSON_AND_ORGANIZATION ( #210, #39 ) ;
#103 = AXIS2_PLACEMENT_3D ( 'NONE', #173, #192, #44 ) ;
#104 = DATE_AND_TIME ( #30, #56 ) ;
#105 = DATE_AND_TIME ( #73, #126 ) ;
#106 = CC_DESIGN_DATE_AND_TIME_ASSIGNMENT ( #105, #204, ( #2 ) ) ;
#107 = DESIGN_CONTEXT ( 'detailed design', #114, 'design' ) ;
#108 = DIRECTION ( 'NONE',  ( 4.275831445896958607E-31, 1.000000000000000000, 1.224646799147353207E-16 ) ) ;
#109 = CC_DESIGN_PERSON_AND_ORGANIZATION_ASSIGNMENT ( #37, #203, ( #221 ) ) ;
#110 = CLOSED_SHELL ( 'NONE', ( #190, #5, #57 ) ) ;
#111 = FACE_OUTER_BOUND ( 'NONE', #23, .T. ) ;
#112 = ORIENTED_EDGE ( 'NONE', *, *, #161, .T. ) ;
#113 = AXIS2_PLACEMENT_3D ( 'NONE', #33, #165, #205 ) ;
#114 = APPLICATION_CONTEXT ( 'configuration controlled 3d designs of mechanical parts and assemblies' ) ;
#115 = DIRECTION ( 'NONE',  ( -3.491481338843133355E-15, 1.224646799147353207E-16, -1.000000000000000000 ) ) ;
#116 = CARTESIAN_POINT ( 'NONE',  ( 1.573420228935349372E-15, 0.7499999999999936717, 0.4506454642706714253 ) ) ;
#117 = COORDINATED_UNIVERSAL_TIME_OFFSET ( 1, 0, .AHEAD. ) ;
#118 = AXIS2_PLACEMENT_3D ( 'NONE', #29, #144, #47 ) ;
#119 = APPROVAL_DATE_TIME ( #169, #187 ) ;
#120 = PERSON_AND_ORGANIZATION ( #210, #39 ) ;
#121 = DIRECTION ( 'NONE',  ( 0.0000000000000000000, 1.000000000000000000, 0.0000000000000000000 ) ) ;
#122 = CYLINDRICAL_SURFACE ( 'NONE', #186, 0.7499999999999938938 ) ;
#123 = UNCERTAINTY_MEASURE_WITH_UNIT (LENGTH_MEASURE( 1.000000000000000082E-05 ), #196, 'distance_accuracy_value', 'NONE');
#124 = ORIENTED_EDGE ( 'NONE', *, *, #160, .F. ) ;
#125 = EDGE_LOOP ( 'NONE', ( #45 ) ) ;
#126 = LOCAL_TIME ( 15, 48, 14.00000000000000000, #222 ) ;
#127 = DIRECTION ( 'NONE',  ( 3.491481338843133355E-15, -1.224646799147353207E-16, 1.000000000000000000 ) ) ;
#128 = CARTESIAN_POINT ( 'NONE',  ( 1.326762908760390423E-13, -4.653657836759941941E-15, 38.00000000000000000 ) ) ;
#129 = CC_DESIGN_PERSON_AND_ORGANIZATION_ASSIGNMENT ( #120, #85, ( #2 ) ) ;
#130 = AXIS2_PLACEMENT_3D ( 'NONE', #11, #184, #153 ) ;
#131 = APPLICATION_PROTOCOL_DEFINITION ( 'international standard', 'config_control_design', 1994, #41 ) ;
#132 = MECHANICAL_CONTEXT ( 'NONE', #41, 'mechanical' ) ;
#133 = DATE_AND_TIME ( #63, #163 ) ;
#134 = AXIS2_PLACEMENT_3D ( 'NONE', #208, #64, #193 ) ;
#135 = APPROVAL ( #155, 'UNSPECIFIED' ) ;
#136 = APPROVAL_ROLE ( '' ) ;
#137 = ORIENTED_EDGE ( 'NONE', *, *, #100, .F. ) ;
#138 = VERTEX_POINT ( 'NONE', #176 ) ;
#139 = FACE_BOUND ( 'NONE', #125, .T. ) ;
#140 = EDGE_LOOP ( 'NONE', ( #112 ) ) ;
#141 = CIRCLE ( 'NONE', #118, 0.9999999999999978906 ) ;
#142 = DIRECTION ( 'NONE',  ( -3.491481338843133355E-15, 1.224646799147353207E-16, -1.000000000000000000 ) ) ;
#143 = CC_DESIGN_APPROVAL ( #187, ( #221 ) ) ;
#144 = DIRECTION ( 'NONE',  ( -3.491481338843133355E-15, 1.224646799147353207E-16, -1.000000000000000000 ) ) ;
#145 = ORIENTED_EDGE ( 'NONE', *, *, #9, .T. ) ;
#146 = PRODUCT ( '461', '461', '', ( #132 ) ) ;
#147 = COORDINATED_UNIVERSAL_TIME_OFFSET ( 1, 0, .AHEAD. ) ;
#148 = DATE_AND_TIME ( #171, #76 ) ;
#149 = APPROVAL_ROLE ( '' ) ;
#150 = DIRECTION ( 'NONE',  ( 0.0000000000000000000, 0.0000000000000000000, 1.000000000000000000 ) ) ;
#151 = DIRECTION ( 'NONE',  ( 4.275831445896958607E-31, 1.000000000000000000, 1.224646799147353207E-16 ) ) ;
#152 = APPROVAL ( #86, 'UNSPECIFIED' ) ;
#153 = DIRECTION ( 'NONE',  ( -5.135813185032671564E-31, -1.000000000000000000, -1.445602896647351243E-16 ) ) ;
#154 = FACE_OUTER_BOUND ( 'NONE', #140, .T. ) ;
#155 = APPROVAL_STATUS ( 'not_yet_approved' ) ;
#156 = CARTESIAN_POINT ( 'NONE',  ( 0.0000000000000000000, 0.0000000000000000000, 0.0000000000000000000 ) ) ;
#157 = AXIS2_PLACEMENT_3D ( 'NONE', #50, #162, #12 ) ;
#158 = EDGE_LOOP ( 'NONE', ( #145 ) ) ;
#159 = AXIS2_PLACEMENT_3D ( 'NONE', #83, #150, #32 ) ;
#160 = EDGE_CURVE ( 'NONE', #138, #138, #93, .T. ) ;
#161 = EDGE_CURVE ( 'NONE', #172, #172, #18, .T. ) ;
#162 = DIRECTION ( 'NONE',  ( 3.491481338843133355E-15, -1.224646799147353207E-16, 1.000000000000000000 ) ) ;
#163 = LOCAL_TIME ( 15, 48, 14.00000000000000000, #72 ) ;
#164 =( NAMED_UNIT ( * ) PLANE_ANGLE_UNIT ( ) SI_UNIT ( $, .RADIAN. ) );
#165 = DIRECTION ( 'NONE',  ( -3.491481338843133355E-15, 1.224646799147353207E-16, -1.000000000000000000 ) ) ;
#166 = PERSON_AND_ORGANIZATION ( #210, #39 ) ;
#167 = FACE_OUTER_BOUND ( 'NONE', #79, .T. ) ;
#168 = CC_DESIGN_PERSON_AND_ORGANIZATION_ASSIGNMENT ( #36, #17, ( #99 ) ) ;
#169 = DATE_AND_TIME ( #202, #201 ) ;
#170 = PLANE ( 'NONE',  #157 ) ;
#171 = CALENDAR_DATE ( 2021, 7, 10 ) ;
#172 = VERTEX_POINT ( 'NONE', #67 ) ;
#173 = CARTESIAN_POINT ( 'NONE',  ( 3.910459099504309358E-14, -1.371604415045035513E-15, 11.19999999999999929 ) ) ;
#174 = DIRECTION ( 'NONE',  ( -3.491481338843133355E-15, 1.224646799147353207E-16, -1.000000000000000000 ) ) ;
#175 = MANIFOLD_SOLID_BREP ( 'Corps-Déplacer/Copier1[2]', #110 ) ;
#176 = CARTESIAN_POINT ( 'NONE',  ( 3.910459099504309358E-14, 0.7499999999999928946, 11.19999999999999929 ) ) ;
#177 = ORIENTED_EDGE ( 'NONE', *, *, #223, .T. ) ;
#178 = CARTESIAN_POINT ( 'NONE',  ( 4.061644676318185836E-14, -1.424633176981282202E-15, 11.63301270189223047 ) ) ;
#179 = DIRECTION ( 'NONE',  ( 5.135813185032671564E-31, 1.000000000000000000, 1.445602896647351243E-16 ) ) ;
#180 = CIRCLE ( 'NONE', #70, 0.7499999999999937828 ) ;
#181 = PLANE ( 'NONE',  #198 ) ;
#182 = CLOSED_SHELL ( 'NONE', ( #214, #25, #183, #24, #10 ) ) ;
#183 = ADVANCED_FACE ( 'NONE', ( #35, #167 ), #16, .T. ) ;
#184 = DIRECTION ( 'NONE',  ( 3.491481338843133355E-15, -1.224646799147353207E-16, 1.000000000000000000 ) ) ;
#185 = DIRECTION ( 'NONE',  ( 0.0000000000000000000, -1.000000000000000000, 0.0000000000000000000 ) ) ;
#186 = AXIS2_PLACEMENT_3D ( 'NONE', #156, #142, #108 ) ;
#187 = APPROVAL ( #60, 'UNSPECIFIED' ) ;
#188 = PERSON_AND_ORGANIZATION ( #210, #39 ) ;
#189 = PERSON_AND_ORGANIZATION_ROLE ( 'design_supplier' ) ;
#190 = ADVANCED_FACE ( 'NONE', ( #207 ), #7, .T. ) ;
#191 = ORIENTED_EDGE ( 'NONE', *, *, #223, .F. ) ;
#192 = DIRECTION ( 'NONE',  ( -3.491481338843133355E-15, 1.224646799147353207E-16, -1.000000000000000000 ) ) ;
#193 = DIRECTION ( 'NONE',  ( 0.0000000000000000000, 1.000000000000000000, 0.0000000000000000000 ) ) ;
#194 = CC_DESIGN_DATE_AND_TIME_ASSIGNMENT ( #104, #89, ( #99 ) ) ;
#195 = EDGE_LOOP ( 'NONE', ( #124 ) ) ;
#196 =( LENGTH_UNIT ( ) NAMED_UNIT ( * ) SI_UNIT ( .MILLI., .METRE. ) );
#197 = EDGE_CURVE ( 'NONE', #51, #51, #141, .T. ) ;
#198 = AXIS2_PLACEMENT_3D ( 'NONE', #199, #127, #52 ) ;
#199 = CARTESIAN_POINT ( 'NONE',  ( 3.910459099504309358E-14, 5.624099184981901712E-33, 11.19999999999999929 ) ) ;
#200 = AXIS2_PLACEMENT_3D ( 'NONE', #128, #88, #121 ) ;
#201 = LOCAL_TIME ( 15, 48, 14.00000000000000000, #117 ) ;
#202 = CALENDAR_DATE ( 2021, 7, 10 ) ;
#203 = PERSON_AND_ORGANIZATION_ROLE ( 'creator' ) ;
#204 = DATE_TIME_ROLE ( 'creation_date' ) ;
#205 = DIRECTION ( 'NONE',  ( 0.0000000000000000000, 1.000000000000000000, 0.0000000000000000000 ) ) ;
#206 = AXIS2_PLACEMENT_3D ( 'NONE', #211, #19, #1 ) ;
#207 = FACE_OUTER_BOUND ( 'NONE', #158, .T. ) ;
#208 = CARTESIAN_POINT ( 'NONE',  ( 1.326762908760390423E-13, -4.653657836759941941E-15, 38.00000000000000000 ) ) ;
#209 = ORIENTED_EDGE ( 'NONE', *, *, #197, .T. ) ;
#210 = PERSON ( 'UNSPECIFIED', 'UNSPECIFIED', 'UNSPECIFIED', ('UNSPECIFIED'), ('UNSPECIFIED'), ('UNSPECIFIED') ) ;
#211 = CARTESIAN_POINT ( 'NONE',  ( 1.326762908760390423E-13, 5.999039130647368167E-33, 38.00000000000000000 ) ) ;
#212 = FACE_OUTER_BOUND ( 'NONE', #43, .T. ) ;
#213 = AXIS2_PLACEMENT_3D ( 'NONE', #87, #220, #151 ) ;
#214 = ADVANCED_FACE ( 'NONE', ( #154 ), #170, .F. ) ;
#215 = PRODUCT_RELATED_PRODUCT_CATEGORY ( 'detail', '', ( #146 ) ) ;
#216 = APPROVAL_DATE_TIME ( #148, #152 ) ;
#217 = PERSON_AND_ORGANIZATION_ROLE ( 'design_owner' ) ;
#218 = PERSON_AND_ORGANIZATION ( #210, #39 ) ;
#219 = PERSON_AND_ORGANIZATION ( #210, #39 ) ;
#220 = DIRECTION ( 'NONE',  ( -3.491481338843133355E-15, 1.224646799147353207E-16, -1.000000000000000000 ) ) ;
#221 = PRODUCT_DEFINITION_FORMATION_WITH_SPECIFIED_SOURCE ( 'ANY', '', #146, .NOT_KNOWN. ) ;
#222 = COORDINATED_UNIVERSAL_TIME_OFFSET ( 1, 0, .AHEAD. ) ;
#223 = EDGE_CURVE ( 'NONE', #97, #97, #98, .T. ) ;
ENDSEC;
END-ISO-10303-21;
