ISO-10303-21;
HEADER;
FILE_DESCRIPTION (( 'STEP AP203' ),
    '1' );
FILE_NAME ('4607.step',
    '2021-09-03T07:22:38',
    ( '' ),
    ( '' ),
    'SwSTEP 2.0',
    'SolidWorks 2019',
    '' );
FILE_SCHEMA (( 'CONFIG_CONTROL_DESIGN' ));
ENDSEC;

DATA;
#1 = CARTESIAN_POINT ( 'NONE',  ( 4.888073874380386066E-14, 1.524999999999987255, 13.99999999999999822 ) ) ;
#2 = PRODUCT_DEFINITION_SHAPE ( 'NONE', 'NONE',  #19 ) ;
#3 = VECTOR ( 'NONE', #21, 1000.000000000000000 ) ;
#4 = EDGE_LOOP ( 'NONE', ( #223, #247, #275 ) ) ;
#5 = EDGE_CURVE ( 'NONE', #295, #39, #75, .T. ) ;
#6 = PERSON_AND_ORGANIZATION ( #66, #141 ) ;
#7 = EDGE_LOOP ( 'NONE', ( #260, #315, #301, #118 ) ) ;
#8 = CARTESIAN_POINT ( 'NONE',  ( 3.199287798835212527E-15, -1.524999999999987699, 0.9163124440170326013 ) ) ;
#9 = ORIENTED_EDGE ( 'NONE', *, *, #157, .F. ) ;
#10 = CARTESIAN_POINT ( 'NONE',  ( 3.386046435705183785E-15, 1.524999999999987255, 0.9163124440170330454 ) ) ;
#11 = APPROVAL_DATE_TIME ( #149, #126 ) ;
#12 = DIRECTION ( 'NONE',  ( 4.275831445896958607E-31, 1.000000000000000000, 1.224646799147353207E-16 ) ) ;
#13 = ORIENTED_EDGE ( 'NONE', *, *, #249, .F. ) ;
#14 = CONICAL_SURFACE ( 'NONE', #92, 1.524999999999987477, 1.029744258676649205 ) ;
#15 = CARTESIAN_POINT ( 'NONE',  ( 0.0000000000000000000, 0.0000000000000000000, 0.0000000000000000000 ) ) ;
#16 = DIRECTION ( 'NONE',  ( 3.491481338843133355E-15, -1.224646799147353207E-16, 1.000000000000000000 ) ) ;
#17 = ORIENTED_EDGE ( 'NONE', *, *, #157, .T. ) ;
#18 = DIRECTION ( 'NONE',  ( -2.468850131082260610E-15, 0.7071067811865489050, -0.7071067811865462405 ) ) ;
#19 = PRODUCT_DEFINITION ( 'UNKNOWN', '', #86, #230 ) ;
#20 = VECTOR ( 'NONE', #18, 1000.000000000000000 ) ;
#21 = DIRECTION ( 'NONE',  ( -3.491481338843133355E-15, 1.224646799147353207E-16, -1.000000000000000000 ) ) ;
#22 = DIRECTION ( 'NONE',  ( 1.000000000000000000, 0.0000000000000000000, 0.0000000000000000000 ) ) ;
#23 = CIRCLE ( 'NONE', #110, 1.124999999999994005 ) ;
#24 = PRODUCT_RELATED_PRODUCT_CATEGORY ( 'detail', '', ( #222 ) ) ;
#25 = DIRECTION ( 'NONE',  ( -3.491481338843133355E-15, 1.224646799147353207E-16, -1.000000000000000000 ) ) ;
#26 = DIRECTION ( 'NONE',  ( 0.0000000000000000000, 1.000000000000000000, 0.0000000000000000000 ) ) ;
#27 = APPLICATION_PROTOCOL_DEFINITION ( 'international standard', 'config_control_design', 1994, #123 ) ;
#28 = CARTESIAN_POINT ( 'NONE',  ( 6.520642954992811560E-31, 1.524999999999988143, 1.867586368699699029E-16 ) ) ;
#29 = DIRECTION ( 'NONE',  ( 5.051619526261643645E-31, 1.000000000000000000, 1.421904488505591241E-16 ) ) ;
#30 = CC_DESIGN_PERSON_AND_ORGANIZATION_ASSIGNMENT ( #297, #122, ( #86 ) ) ;
#31 = DIRECTION ( 'NONE',  ( 1.798245827342161500E-15, -0.8571673007021096691, 0.5150380749100585964 ) ) ;
#32 = LOCAL_TIME ( 9, 22, 38.00000000000000000, #282 ) ;
#33 = APPROVAL_PERSON_ORGANIZATION ( #97, #232, #44 ) ;
#34 = DIRECTION ( 'NONE',  ( -3.491481338843133355E-15, 1.224646799147353207E-16, -1.000000000000000000 ) ) ;
#35 = VERTEX_POINT ( 'NONE', #106 ) ;
#36 = CARTESIAN_POINT ( 'NONE',  ( 4.888073874380386066E-14, 1.143566834279655615E-32, 13.99999999999999822 ) ) ;
#37 = APPROVAL ( #236, 'UNSPECIFIED' ) ;
#38 = LOCAL_TIME ( 9, 22, 38.00000000000000000, #77 ) ;
#39 = VERTEX_POINT ( 'NONE', #162 ) ;
#40 = ORIENTED_EDGE ( 'NONE', *, *, #176, .T. ) ;
#41 = AXIS2_PLACEMENT_3D ( 'NONE', #130, #257, #26 ) ;
#42 = DIRECTION ( 'NONE',  ( -2.382254525458712342E-15, -0.7071067811865487940, -0.7071067811865463515 ) ) ;
#43 = DIRECTION ( 'NONE',  ( 3.491481338843133355E-15, -1.224646799147353207E-16, 1.000000000000000000 ) ) ;
#44 = APPROVAL_ROLE ( '' ) ;
#45 = CC_DESIGN_PERSON_AND_ORGANIZATION_ASSIGNMENT ( #304, #87, ( #222 ) ) ;
#46 = DIRECTION ( 'NONE',  ( 0.0000000000000000000, 1.000000000000000000, 0.0000000000000000000 ) ) ;
#47 = DIRECTION ( 'NONE',  ( -3.491481338843133355E-15, 1.224646799147353207E-16, -1.000000000000000000 ) ) ;
#48 = DIRECTION ( 'NONE',  ( -5.051619526261643645E-31, -1.000000000000000000, -1.421904488505591241E-16 ) ) ;
#49 = LINE ( 'NONE', #108, #20 ) ;
#50 = VERTEX_POINT ( 'NONE', #210 ) ;
#51 = CARTESIAN_POINT ( 'NONE',  ( 1.710825856033135470E-13, -6.000769315822030937E-15, 49.00000000000000000 ) ) ;
#52 = VECTOR ( 'NONE', #31, 1000.000000000000000 ) ;
#53 = APPROVAL_PERSON_ORGANIZATION ( #337, #126, #289 ) ;
#54 = EDGE_LOOP ( 'NONE', ( #312, #17, #94, #251 ) ) ;
#55 = CARTESIAN_POINT ( 'NONE',  ( 1.696859930677762937E-13, -5.951783443856137509E-15, 48.60000000000000142 ) ) ;
#56 = EDGE_CURVE ( 'NONE', #39, #69, #80, .T. ) ;
#57 = CALENDAR_DATE ( 2021, 3, 9 ) ;
#58 = DIRECTION ( 'NONE',  ( -3.491481338843133355E-15, 1.224646799147353207E-16, -1.000000000000000000 ) ) ;
#59 = VERTEX_POINT ( 'NONE', #226 ) ;
#60 = FACE_OUTER_BOUND ( 'NONE', #196, .T. ) ;
#61 = ORIENTED_EDGE ( 'NONE', *, *, #274, .F. ) ;
#62 = LOCAL_TIME ( 9, 22, 38.00000000000000000, #175 ) ;
#63 = ORIENTED_EDGE ( 'NONE', *, *, #131, .T. ) ;
#64 = COORDINATED_UNIVERSAL_TIME_OFFSET ( 1, 0, .AHEAD. ) ;
#65 = DIRECTION ( 'NONE',  ( -4.275831445896958607E-31, -1.000000000000000000, -1.224646799147353207E-16 ) ) ;
#66 = PERSON ( 'UNSPECIFIED', 'UNSPECIFIED', 'UNSPECIFIED', ('UNSPECIFIED'), ('UNSPECIFIED'), ('UNSPECIFIED') ) ;
#67 = ORIENTED_EDGE ( 'NONE', *, *, #114, .T. ) ;
#68 = CALENDAR_DATE ( 2021, 3, 9 ) ;
#69 = VERTEX_POINT ( 'NONE', #248 ) ;
#70 = AXIS2_PLACEMENT_3D ( 'NONE', #305, #25, #212 ) ;
#71 = MANIFOLD_SOLID_BREP ( 'Corps-Déplacer/Copier1[2]', #84 ) ;
#72 = ORIENTED_EDGE ( 'NONE', *, *, #5, .T. ) ;
#73 = VERTEX_POINT ( 'NONE', #78 ) ;
#74 = VERTEX_POINT ( 'NONE', #8 ) ;
#75 = CIRCLE ( 'NONE', #329, 1.524999999999993250 ) ;
#76 = LINE ( 'NONE', #156, #321 ) ;
#77 = COORDINATED_UNIVERSAL_TIME_OFFSET ( 1, 0, .AHEAD. ) ;
#78 = CARTESIAN_POINT ( 'NONE',  ( 1.705465550364319299E-13, -1.125000000000000222, 49.00000000000000000 ) ) ;
#79 = CARTESIAN_POINT ( 'NONE',  ( 4.888073874380386066E-14, -1.714505518806294441E-15, 13.99999999999999822 ) ) ;
#80 = LINE ( 'NONE', #203, #100 ) ;
#81 = ORIENTED_EDGE ( 'NONE', *, *, #310, .F. ) ;
#82 = PLANE ( 'NONE',  #194 ) ;
#83 = DIRECTION ( 'NONE',  ( 0.0000000000000000000, 1.000000000000000000, 0.0000000000000000000 ) ) ;
#84 = CLOSED_SHELL ( 'NONE', ( #201, #154, #253, #317, #104 ) ) ;
#85 = EDGE_CURVE ( 'NONE', #323, #59, #319, .T. ) ;
#86 = PRODUCT_DEFINITION_FORMATION_WITH_SPECIFIED_SOURCE ( 'ANY', '', #222, .NOT_KNOWN. ) ;
#87 = PERSON_AND_ORGANIZATION_ROLE ( 'design_owner' ) ;
#88 = LINE ( 'NONE', #182, #215 ) ;
#89 = PERSON_AND_ORGANIZATION ( #66, #141 ) ;
#90 = PERSON_AND_ORGANIZATION_ROLE ( 'creator' ) ;
#91 = DIRECTION ( 'NONE',  ( -3.491481338843133355E-15, 1.224646799147353207E-16, -1.000000000000000000 ) ) ;
#92 = AXIS2_PLACEMENT_3D ( 'NONE', #190, #16, #48 ) ;
#93 = CC_DESIGN_APPROVAL ( #232, ( #152 ) ) ;
#94 = ORIENTED_EDGE ( 'NONE', *, *, #327, .F. ) ;
#95 = FACE_OUTER_BOUND ( 'NONE', #309, .T. ) ;
#96 = ORIENTED_EDGE ( 'NONE', *, *, #213, .T. ) ;
#97 = PERSON_AND_ORGANIZATION ( #66, #141 ) ;
#98 = CARTESIAN_POINT ( 'NONE',  ( 3.199287798835213315E-15, -1.122159101584347493E-16, 0.9163124440170328233 ) ) ;
#99 = CC_DESIGN_DATE_AND_TIME_ASSIGNMENT ( #265, #336, ( #19 ) ) ;
#100 = VECTOR ( 'NONE', #273, 1000.000000000000000 ) ;
#101 = AXIS2_PLACEMENT_3D ( 'NONE', #137, #189, #164 ) ;
#102 = ORIENTED_EDGE ( 'NONE', *, *, #310, .T. ) ;
#103 = APPROVAL_DATE_TIME ( #188, #232 ) ;
#104 = ADVANCED_FACE ( 'NONE', ( #174 ), #264, .T. ) ;
#105 = AXIS2_PLACEMENT_3D ( 'NONE', #15, #136, #325 ) ;
#106 = CARTESIAN_POINT ( 'NONE',  ( 1.094701245426600066E-13, -1.524999999999990807, 13.99999999999999822 ) ) ;
#107 = DIRECTION ( 'NONE',  ( -3.491481338843133355E-15, 1.224646799147353207E-16, -1.000000000000000000 ) ) ;
#108 = CARTESIAN_POINT ( 'NONE',  ( 1.710825856033135470E-13, 1.124999999999988010, 49.00000000000000000 ) ) ;
#109 = CC_DESIGN_DATE_AND_TIME_ASSIGNMENT ( #221, #250, ( #152 ) ) ;
#110 = AXIS2_PLACEMENT_3D ( 'NONE', #318, #298, #276 ) ;
#111 = DIRECTION ( 'NONE',  ( 0.0000000000000000000, 0.0000000000000000000, 1.000000000000000000 ) ) ;
#112 = UNCERTAINTY_MEASURE_WITH_UNIT (LENGTH_MEASURE( 1.000000000000000082E-05 ), #115, 'distance_accuracy_value', 'NONE');
#113 = DIRECTION ( 'NONE',  ( 0.0000000000000000000, 1.000000000000000000, 0.0000000000000000000 ) ) ;
#114 = EDGE_CURVE ( 'NONE', #69, #35, #150, .T. ) ;
#115 =( LENGTH_UNIT ( ) NAMED_UNIT ( * ) SI_UNIT ( .MILLI., .METRE. ) );
#116 = DIRECTION ( 'NONE',  ( -3.491481338843133355E-15, 1.224646799147353207E-16, -1.000000000000000000 ) ) ;
#117 = CARTESIAN_POINT ( 'NONE',  ( 1.094701245426598804E-13, -1.524999999999999245, 48.60000000000000142 ) ) ;
#118 = ORIENTED_EDGE ( 'NONE', *, *, #131, .F. ) ;
#119 = SHAPE_DEFINITION_REPRESENTATION ( #2, #231 ) ;
#120 = AXIS2_PLACEMENT_3D ( 'NONE', #254, #111, #22 ) ;
#121 = ORIENTED_EDGE ( 'NONE', *, *, #56, .T. ) ;
#122 = PERSON_AND_ORGANIZATION_ROLE ( 'creator' ) ;
#123 = APPLICATION_CONTEXT ( 'configuration controlled 3d designs of mechanical parts and assemblies' ) ;
#124 = ORIENTED_EDGE ( 'NONE', *, *, #56, .F. ) ;
#125 = CYLINDRICAL_SURFACE ( 'NONE', #252, 1.524999999999991251 ) ;
#126 = APPROVAL ( #324, 'UNSPECIFIED' ) ;
#127 = VERTEX_POINT ( 'NONE', #307 ) ;
#128 = AXIS2_PLACEMENT_3D ( 'NONE', #98, #58, #285 ) ;
#129 = LINE ( 'NONE', #225, #3 ) ;
#130 = CARTESIAN_POINT ( 'NONE',  ( 4.888073874380386066E-14, -1.714505518806294441E-15, 13.99999999999999822 ) ) ;
#131 = EDGE_CURVE ( 'NONE', #287, #59, #167, .T. ) ;
#132 = DIRECTION ( 'NONE',  ( -3.491481338843133355E-15, 1.224646799147353207E-16, -1.000000000000000000 ) ) ;
#133 = CARTESIAN_POINT ( 'NONE',  ( 0.0000000000000000000, 0.0000000000000000000, 0.0000000000000000000 ) ) ;
#134 = COORDINATED_UNIVERSAL_TIME_OFFSET ( 1, 0, .AHEAD. ) ;
#135 = CIRCLE ( 'NONE', #184, 1.524999999999993250 ) ;
#136 = DIRECTION ( 'NONE',  ( -3.491481338843133355E-15, 1.224646799147353207E-16, -1.000000000000000000 ) ) ;
#137 = CARTESIAN_POINT ( 'NONE',  ( 0.0000000000000000000, 0.0000000000000000000, 0.0000000000000000000 ) ) ;
#138 = DIRECTION ( 'NONE',  ( -3.491481338843133355E-15, 1.224646799147353207E-16, -1.000000000000000000 ) ) ;
#139 = EDGE_CURVE ( 'NONE', #127, #39, #49, .T. ) ;
#140 = DIRECTION ( 'NONE',  ( 0.0000000000000000000, 1.000000000000000000, 0.0000000000000000000 ) ) ;
#141 = ORGANIZATION ( 'UNSPECIFIED', 'UNSPECIFIED', '' ) ;
#142 = DIRECTION ( 'NONE',  ( 0.0000000000000000000, 1.000000000000000000, 0.0000000000000000000 ) ) ;
#143 = EDGE_CURVE ( 'NONE', #287, #50, #242, .T. ) ;
#144 = CARTESIAN_POINT ( 'NONE',  ( 4.888073874380386066E-14, -1.714505518806294441E-15, 13.99999999999999822 ) ) ;
#145 = CLOSED_SHELL ( 'NONE', ( #330, #217, #192, #163, #291, #322 ) ) ;
#146 = CARTESIAN_POINT ( 'NONE',  ( 0.0000000000000000000, 0.0000000000000000000, 0.0000000000000000000 ) ) ;
#147 = CALENDAR_DATE ( 2021, 3, 9 ) ;
#148 = ORIENTED_EDGE ( 'NONE', *, *, #208, .F. ) ;
#149 = DATE_AND_TIME ( #68, #62 ) ;
#150 = CIRCLE ( 'NONE', #41, 1.524999999999989031 ) ;
#151 = DIRECTION ( 'NONE',  ( -4.275831445896958607E-31, -1.000000000000000000, -1.224646799147353207E-16 ) ) ;
#152 = SECURITY_CLASSIFICATION ( '', '', #267 ) ;
#153 = ORIENTED_EDGE ( 'NONE', *, *, #139, .T. ) ;
#154 = ADVANCED_FACE ( 'NONE', ( #328 ), #246, .T. ) ;
#155 = ORIENTED_EDGE ( 'NONE', *, *, #85, .F. ) ;
#156 = CARTESIAN_POINT ( 'NONE',  ( 1.867586368699692866E-16, -1.524999999999988143, -1.867586368699705438E-16 ) ) ;
#157 = EDGE_CURVE ( 'NONE', #73, #295, #88, .T. ) ;
#158 = CIRCLE ( 'NONE', #334, 1.524999999999987477 ) ;
#159 = DIRECTION ( 'NONE',  ( -5.051619526261643645E-31, -1.000000000000000000, -1.421904488505591241E-16 ) ) ;
#160 = APPLICATION_CONTEXT ( 'configuration controlled 3d designs of mechanical parts and assemblies' ) ;
#161 = CYLINDRICAL_SURFACE ( 'NONE', #105, 1.524999999999991251 ) ;
#162 = CARTESIAN_POINT ( 'NONE',  ( 1.696859930677762937E-13, 1.524999999999987255, 48.60000000000000142 ) ) ;
#163 = ADVANCED_FACE ( 'NONE', ( #302 ), #161, .T. ) ;
#164 = DIRECTION ( 'NONE',  ( 4.275831445896958607E-31, 1.000000000000000000, 1.224646799147353207E-16 ) ) ;
#165 =( NAMED_UNIT ( * ) SI_UNIT ( $, .STERADIAN. ) SOLID_ANGLE_UNIT ( ) );
#166 = DIRECTION ( 'NONE',  ( -3.491481338843133355E-15, 1.224646799147353207E-16, -1.000000000000000000 ) ) ;
#167 = LINE ( 'NONE', #28, #281 ) ;
#168 = ORIENTED_EDGE ( 'NONE', *, *, #143, .F. ) ;
#169 = DATE_AND_TIME ( #57, #32 ) ;
#170 = CIRCLE ( 'NONE', #202, 1.524999999999989031 ) ;
#171 = DIRECTION ( 'NONE',  ( 0.0000000000000000000, 1.000000000000000000, 0.0000000000000000000 ) ) ;
#172 = LOCAL_TIME ( 9, 22, 38.00000000000000000, #64 ) ;
#173 = ORIENTED_EDGE ( 'NONE', *, *, #249, .T. ) ;
#174 = FACE_OUTER_BOUND ( 'NONE', #177, .T. ) ;
#175 = COORDINATED_UNIVERSAL_TIME_OFFSET ( 1, 0, .AHEAD. ) ;
#176 = EDGE_CURVE ( 'NONE', #295, #35, #129, .T. ) ;
#177 = EDGE_LOOP ( 'NONE', ( #168, #186 ) ) ;
#178 = CALENDAR_DATE ( 2021, 3, 9 ) ;
#179 = CIRCLE ( 'NONE', #128, 1.524999999999987477 ) ;
#180 = EDGE_CURVE ( 'NONE', #59, #74, #158, .T. ) ;
#181 = MANIFOLD_SOLID_BREP ( 'Corps-Déplacer/Copier1[1]', #145 ) ;
#182 = CARTESIAN_POINT ( 'NONE',  ( 1.712203583682176020E-13, -1.125000000000000222, 49.00000000000000000 ) ) ;
#183 = CARTESIAN_POINT ( 'NONE',  ( 3.199287798835213315E-15, -1.122159101584347493E-16, 0.9163124440170328233 ) ) ;
#184 = AXIS2_PLACEMENT_3D ( 'NONE', #55, #116, #171 ) ;
#185 = ORIENTED_EDGE ( 'NONE', *, *, #294, .T. ) ;
#186 = ORIENTED_EDGE ( 'NONE', *, *, #213, .F. ) ;
#187 = ORIENTED_EDGE ( 'NONE', *, *, #219, .F. ) ;
#188 = DATE_AND_TIME ( #178, #172 ) ;
#189 = DIRECTION ( 'NONE',  ( -3.491481338843133355E-15, 1.224646799147353207E-16, -1.000000000000000000 ) ) ;
#190 = CARTESIAN_POINT ( 'NONE',  ( 3.199287798835213315E-15, -1.122159101584347493E-16, 0.9163124440170328233 ) ) ;
#191 = DIRECTION ( 'NONE',  ( 0.0000000000000000000, 1.000000000000000000, 0.0000000000000000000 ) ) ;
#192 = ADVANCED_FACE ( 'NONE', ( #333 ), #198, .F. ) ;
#193 = FACE_OUTER_BOUND ( 'NONE', #326, .T. ) ;
#194 = AXIS2_PLACEMENT_3D ( 'NONE', #218, #278, #311 ) ;
#195 = FACE_OUTER_BOUND ( 'NONE', #269, .T. ) ;
#196 = EDGE_LOOP ( 'NONE', ( #61, #96, #63, #13 ) ) ;
#197 = APPROVAL_ROLE ( '' ) ;
#198 = PLANE ( 'NONE',  #266 ) ;
#199 = PERSON_AND_ORGANIZATION ( #66, #141 ) ;
#200 = PERSON_AND_ORGANIZATION_ROLE ( 'design_supplier' ) ;
#201 = ADVANCED_FACE ( 'NONE', ( #204 ), #209, .T. ) ;
#202 = AXIS2_PLACEMENT_3D ( 'NONE', #234, #138, #140 ) ;
#203 = CARTESIAN_POINT ( 'NONE',  ( 6.520642954992824697E-31, 1.524999999999991251, 1.867586368699702973E-16 ) ) ;
#204 = FACE_OUTER_BOUND ( 'NONE', #7, .T. ) ;
#205 = AXIS2_PLACEMENT_3D ( 'NONE', #183, #43, #159 ) ;
#206 = CARTESIAN_POINT ( 'NONE',  ( 1.696859930677762937E-13, -5.951783443856137509E-15, 48.60000000000000142 ) ) ;
#207 = CALENDAR_DATE ( 2021, 3, 9 ) ;
#208 = EDGE_CURVE ( 'NONE', #73, #127, #277, .T. ) ;
#209 = CYLINDRICAL_SURFACE ( 'NONE', #101, 1.524999999999988143 ) ;
#210 = CARTESIAN_POINT ( 'NONE',  ( 2.622677190818948024E-14, -1.524999999999990807, 13.99999999999999822 ) ) ;
#211 = AXIS2_PLACEMENT_3D ( 'NONE', #36, #290, #151 ) ;
#212 = DIRECTION ( 'NONE',  ( 0.0000000000000000000, 1.000000000000000000, 0.0000000000000000000 ) ) ;
#213 = EDGE_CURVE ( 'NONE', #50, #287, #170, .T. ) ;
#214 = APPLICATION_PROTOCOL_DEFINITION ( 'international standard', 'config_control_design', 1994, #160 ) ;
#215 = VECTOR ( 'NONE', #42, 999.9999999999998863 ) ;
#216 =( NAMED_UNIT ( * ) PLANE_ANGLE_UNIT ( ) SI_UNIT ( $, .RADIAN. ) );
#217 = ADVANCED_FACE ( 'NONE', ( #95 ), #125, .T. ) ;
#218 = CARTESIAN_POINT ( 'NONE',  ( 1.710825856033135470E-13, 8.436148777472814935E-33, 49.00000000000000000 ) ) ;
#219 = EDGE_CURVE ( 'NONE', #127, #73, #23, .T. ) ;
#220 = ORIENTED_EDGE ( 'NONE', *, *, #208, .T. ) ;
#221 = DATE_AND_TIME ( #207, #38 ) ;
#222 = PRODUCT ( '4607', '4607', '', ( #331 ) ) ;
#223 = ORIENTED_EDGE ( 'NONE', *, *, #294, .F. ) ;
#224 = LOCAL_TIME ( 9, 22, 38.00000000000000000, #134 ) ;
#225 = CARTESIAN_POINT ( 'NONE',  ( 1.867586368699696317E-16, -1.524999999999991251, -1.867586368699709136E-16 ) ) ;
#226 = CARTESIAN_POINT ( 'NONE',  ( 3.386046435705183785E-15, 1.524999999999987255, 0.9163124440170330454 ) ) ;
#227 = APPROVAL_STATUS ( 'not_yet_approved' ) ;
#228 = ORIENTED_EDGE ( 'NONE', *, *, #5, .F. ) ;
#229 = EDGE_LOOP ( 'NONE', ( #155, #185, #173 ) ) ;
#230 = DESIGN_CONTEXT ( 'detailed design', #160, 'design' ) ;
#231 = ADVANCED_BREP_SHAPE_REPRESENTATION ( '4607', ( #181, #71, #120 ), #292 ) ;
#232 = APPROVAL ( #227, 'UNSPECIFIED' ) ;
#233 = AXIS2_PLACEMENT_3D ( 'NONE', #144, #166, #83 ) ;
#234 = CARTESIAN_POINT ( 'NONE',  ( 4.888073874380386066E-14, -1.714505518806294441E-15, 13.99999999999999822 ) ) ;
#235 = CARTESIAN_POINT ( 'NONE',  ( 1.710825856033135470E-13, -6.000769315822030937E-15, 49.00000000000000000 ) ) ;
#236 = APPROVAL_STATUS ( 'not_yet_approved' ) ;
#237 = CIRCLE ( 'NONE', #233, 1.524999999999989031 ) ;
#238 = AXIS2_PLACEMENT_3D ( 'NONE', #79, #47, #191 ) ;
#239 = CARTESIAN_POINT ( 'NONE',  ( 0.0000000000000000000, 0.0000000000000000000, 0.0000000000000000000 ) ) ;
#240 = PERSON_AND_ORGANIZATION ( #66, #141 ) ;
#241 = CARTESIAN_POINT ( 'NONE',  ( 3.199287798835213315E-15, -1.122159101584347493E-16, 0.9163124440170328233 ) ) ;
#242 = CIRCLE ( 'NONE', #238, 1.524999999999989031 ) ;
#243 = CC_DESIGN_SECURITY_CLASSIFICATION ( #152, ( #86 ) ) ;
#244 = CC_DESIGN_PERSON_AND_ORGANIZATION_ASSIGNMENT ( #240, #316, ( #152 ) ) ;
#245 = ORIENTED_EDGE ( 'NONE', *, *, #114, .F. ) ;
#246 = CONICAL_SURFACE ( 'NONE', #205, 1.524999999999987477, 1.029744258676649205 ) ;
#247 = ORIENTED_EDGE ( 'NONE', *, *, #85, .T. ) ;
#248 = CARTESIAN_POINT ( 'NONE',  ( 4.888073874380386066E-14, 1.524999999999987255, 13.99999999999999822 ) ) ;
#249 = EDGE_CURVE ( 'NONE', #74, #59, #179, .T. ) ;
#250 = DATE_TIME_ROLE ( 'classification_date' ) ;
#251 = ORIENTED_EDGE ( 'NONE', *, *, #139, .F. ) ;
#252 = AXIS2_PLACEMENT_3D ( 'NONE', #133, #91, #12 ) ;
#253 = ADVANCED_FACE ( 'NONE', ( #300 ), #14, .T. ) ;
#254 = CARTESIAN_POINT ( 'NONE',  ( 0.0000000000000000000, 0.0000000000000000000, 0.0000000000000000000 ) ) ;
#255 = CONICAL_SURFACE ( 'NONE', #308, 1.124999999999994005, 0.7853981633974501664 ) ;
#256 = DIRECTION ( 'NONE',  ( 4.275831445896958607E-31, 1.000000000000000000, 1.224646799147353207E-16 ) ) ;
#257 = DIRECTION ( 'NONE',  ( -3.491481338843133355E-15, 1.224646799147353207E-16, -1.000000000000000000 ) ) ;
#258 = APPROVAL_DATE_TIME ( #169, #37 ) ;
#259 = CC_DESIGN_APPROVAL ( #37, ( #19 ) ) ;
#260 = ORIENTED_EDGE ( 'NONE', *, *, #143, .T. ) ;
#261 = FACE_OUTER_BOUND ( 'NONE', #54, .T. ) ;
#262 = EDGE_LOOP ( 'NONE', ( #271, #72, #121, #81 ) ) ;
#263 = EDGE_LOOP ( 'NONE', ( #67, #102 ) ) ;
#264 = PLANE ( 'NONE',  #211 ) ;
#265 = DATE_AND_TIME ( #147, #224 ) ;
#266 = AXIS2_PLACEMENT_3D ( 'NONE', #288, #283, #65 ) ;
#267 = SECURITY_CLASSIFICATION_LEVEL ( 'unclassified' ) ;
#268 = CC_DESIGN_PERSON_AND_ORGANIZATION_ASSIGNMENT ( #199, #90, ( #19 ) ) ;
#269 = EDGE_LOOP ( 'NONE', ( #187, #148 ) ) ;
#270 = DIRECTION ( 'NONE',  ( -3.491481338843133355E-15, 1.224646799147353207E-16, -1.000000000000000000 ) ) ;
#271 = ORIENTED_EDGE ( 'NONE', *, *, #176, .F. ) ;
#272 = AXIS2_PLACEMENT_3D ( 'NONE', #235, #332, #142 ) ;
#273 = DIRECTION ( 'NONE',  ( -3.491481338843133355E-15, 1.224646799147353207E-16, -1.000000000000000000 ) ) ;
#274 = EDGE_CURVE ( 'NONE', #50, #74, #76, .T. ) ;
#275 = ORIENTED_EDGE ( 'NONE', *, *, #180, .T. ) ;
#276 = DIRECTION ( 'NONE',  ( 0.0000000000000000000, 1.000000000000000000, 0.0000000000000000000 ) ) ;
#277 = CIRCLE ( 'NONE', #70, 1.124999999999994005 ) ;
#278 = DIRECTION ( 'NONE',  ( -3.491481338843133355E-15, 1.224646799147353207E-16, -1.000000000000000000 ) ) ;
#279 = CYLINDRICAL_SURFACE ( 'NONE', #313, 1.524999999999988143 ) ;
#280 = DIRECTION ( 'NONE',  ( -3.491481338843133355E-15, 1.224646799147353207E-16, -1.000000000000000000 ) ) ;
#281 = VECTOR ( 'NONE', #107, 1000.000000000000000 ) ;
#282 = COORDINATED_UNIVERSAL_TIME_OFFSET ( 1, 0, .AHEAD. ) ;
#283 = DIRECTION ( 'NONE',  ( 3.491481338843133355E-15, -1.224646799147353207E-16, 1.000000000000000000 ) ) ;
#284 = DIRECTION ( 'NONE',  ( -3.491481338843133355E-15, 1.224646799147353207E-16, -1.000000000000000000 ) ) ;
#285 = DIRECTION ( 'NONE',  ( 5.051619526261643645E-31, 1.000000000000000000, 1.421904488505591241E-16 ) ) ;
#286 = CONICAL_SURFACE ( 'NONE', #272, 1.124999999999994005, 0.7853981633974501664 ) ;
#287 = VERTEX_POINT ( 'NONE', #1 ) ;
#288 = CARTESIAN_POINT ( 'NONE',  ( 4.888073874380386066E-14, 1.143566834279655615E-32, 13.99999999999999822 ) ) ;
#289 = APPROVAL_ROLE ( '' ) ;
#290 = DIRECTION ( 'NONE',  ( 3.491481338843133355E-15, -1.224646799147353207E-16, 1.000000000000000000 ) ) ;
#291 = ADVANCED_FACE ( 'NONE', ( #193 ), #286, .T. ) ;
#292 =( GEOMETRIC_REPRESENTATION_CONTEXT ( 3 ) GLOBAL_UNCERTAINTY_ASSIGNED_CONTEXT ( ( #112 ) ) GLOBAL_UNIT_ASSIGNED_CONTEXT ( ( #115, #216, #165 ) ) REPRESENTATION_CONTEXT ( 'NONE', 'WORKASPACE' ) );
#293 = ORIENTED_EDGE ( 'NONE', *, *, #327, .T. ) ;
#294 = EDGE_CURVE ( 'NONE', #323, #74, #306, .T. ) ;
#295 = VERTEX_POINT ( 'NONE', #117 ) ;
#296 = APPROVAL_PERSON_ORGANIZATION ( #89, #37, #197 ) ;
#297 = PERSON_AND_ORGANIZATION ( #66, #141 ) ;
#298 = DIRECTION ( 'NONE',  ( -3.491481338843133355E-15, 1.224646799147353207E-16, -1.000000000000000000 ) ) ;
#299 = CC_DESIGN_PERSON_AND_ORGANIZATION_ASSIGNMENT ( #6, #200, ( #86 ) ) ;
#300 = FACE_OUTER_BOUND ( 'NONE', #229, .T. ) ;
#301 = ORIENTED_EDGE ( 'NONE', *, *, #180, .F. ) ;
#302 = FACE_OUTER_BOUND ( 'NONE', #262, .T. ) ;
#303 = VECTOR ( 'NONE', #320, 1000.000000000000114 ) ;
#304 = PERSON_AND_ORGANIZATION ( #66, #141 ) ;
#305 = CARTESIAN_POINT ( 'NONE',  ( 1.710825856033135470E-13, -6.000769315822030937E-15, 49.00000000000000000 ) ) ;
#306 = LINE ( 'NONE', #335, #52 ) ;
#307 = CARTESIAN_POINT ( 'NONE',  ( 1.710825856033135470E-13, 1.124999999999988010, 49.00000000000000000 ) ) ;
#308 = AXIS2_PLACEMENT_3D ( 'NONE', #51, #34, #113 ) ;
#309 = EDGE_LOOP ( 'NONE', ( #293, #40, #245, #124 ) ) ;
#310 = EDGE_CURVE ( 'NONE', #35, #69, #237, .T. ) ;
#311 = DIRECTION ( 'NONE',  ( 4.275831445896958607E-31, 1.000000000000000000, 1.224646799147353207E-16 ) ) ;
#312 = ORIENTED_EDGE ( 'NONE', *, *, #219, .T. ) ;
#313 = AXIS2_PLACEMENT_3D ( 'NONE', #146, #284, #256 ) ;
#314 = CC_DESIGN_APPROVAL ( #126, ( #86 ) ) ;
#315 = ORIENTED_EDGE ( 'NONE', *, *, #274, .T. ) ;
#316 = PERSON_AND_ORGANIZATION_ROLE ( 'classification_officer' ) ;
#317 = ADVANCED_FACE ( 'NONE', ( #60 ), #279, .T. ) ;
#318 = CARTESIAN_POINT ( 'NONE',  ( 1.710825856033135470E-13, -6.000769315822030937E-15, 49.00000000000000000 ) ) ;
#319 = LINE ( 'NONE', #10, #303 ) ;
#320 = DIRECTION ( 'NONE',  ( 1.903218546456023900E-15, 0.8571673007021095581, 0.5150380749100589295 ) ) ;
#321 = VECTOR ( 'NONE', #270, 1000.000000000000000 ) ;
#322 = ADVANCED_FACE ( 'NONE', ( #195 ), #82, .F. ) ;
#323 = VERTEX_POINT ( 'NONE', #239 ) ;
#324 = APPROVAL_STATUS ( 'not_yet_approved' ) ;
#325 = DIRECTION ( 'NONE',  ( 4.275831445896958607E-31, 1.000000000000000000, 1.224646799147353207E-16 ) ) ;
#326 = EDGE_LOOP ( 'NONE', ( #9, #220, #153, #228 ) ) ;
#327 = EDGE_CURVE ( 'NONE', #39, #295, #135, .T. ) ;
#328 = FACE_OUTER_BOUND ( 'NONE', #4, .T. ) ;
#329 = AXIS2_PLACEMENT_3D ( 'NONE', #206, #132, #46 ) ;
#330 = ADVANCED_FACE ( 'NONE', ( #261 ), #255, .T. ) ;
#331 = MECHANICAL_CONTEXT ( 'NONE', #123, 'mechanical' ) ;
#332 = DIRECTION ( 'NONE',  ( -3.491481338843133355E-15, 1.224646799147353207E-16, -1.000000000000000000 ) ) ;
#333 = FACE_OUTER_BOUND ( 'NONE', #263, .T. ) ;
#334 = AXIS2_PLACEMENT_3D ( 'NONE', #241, #280, #29 ) ;
#335 = CARTESIAN_POINT ( 'NONE',  ( 3.199287798835212527E-15, -1.524999999999987699, 0.9163124440170326013 ) ) ;
#336 = DATE_TIME_ROLE ( 'creation_date' ) ;
#337 = PERSON_AND_ORGANIZATION ( #66, #141 ) ;
ENDSEC;
END-ISO-10303-21;
