ISO-10303-21;
HEADER;
FILE_DESCRIPTION (( 'STEP AP203' ),
    '1' );
FILE_NAME ('460.step',
    '2021-10-07T13:48:13',
    ( '' ),
    ( '' ),
    'SwSTEP 2.0',
    'SolidWorks 2019',
    '' );
FILE_SCHEMA (( 'CONFIG_CONTROL_DESIGN' ));
ENDSEC;

DATA;
#1 = PERSON_AND_ORGANIZATION_ROLE ( 'creator' ) ;
#2 = ADVANCED_FACE ( 'NONE', ( #37, #133 ), #215, .T. ) ;
#3 = PERSON_AND_ORGANIZATION ( #199, #109 ) ;
#4 = APPROVAL_PERSON_ORGANIZATION ( #3, #46, #148 ) ;
#5 = PERSON_AND_ORGANIZATION_ROLE ( 'design_supplier' ) ;
#6 = EDGE_LOOP ( 'NONE', ( #136 ) ) ;
#7 = ORIENTED_EDGE ( 'NONE', *, *, #22, .T. ) ;
#8 = ORIENTED_EDGE ( 'NONE', *, *, #107, .T. ) ;
#9 = DIRECTION ( 'NONE',  ( -5.502656983963540142E-31, -1.000000000000000000, -1.548860246407866048E-16 ) ) ;
#10 = FACE_OUTER_BOUND ( 'NONE', #6, .T. ) ;
#11 = CC_DESIGN_PERSON_AND_ORGANIZATION_ASSIGNMENT ( #110, #12, ( #73 ) ) ;
#12 = PERSON_AND_ORGANIZATION_ROLE ( 'classification_officer' ) ;
#13 = DATE_AND_TIME ( #96, #93 ) ;
#14 = VERTEX_POINT ( 'NONE', #129 ) ;
#15 = PERSON_AND_ORGANIZATION ( #199, #109 ) ;
#16 = PERSON_AND_ORGANIZATION ( #199, #109 ) ;
#17 = CONICAL_SURFACE ( 'NONE', #191, 0.6999999999999988454, 1.029744258676649649 ) ;
#18 = DIRECTION ( 'NONE',  ( -3.491481338843133355E-15, 1.224646799147353207E-16, -1.000000000000000000 ) ) ;
#19 = ORIENTED_EDGE ( 'NONE', *, *, #190, .T. ) ;
#20 = FACE_OUTER_BOUND ( 'NONE', #82, .T. ) ;
#21 = EDGE_LOOP ( 'NONE', ( #201 ) ) ;
#22 = EDGE_CURVE ( 'NONE', #25, #25, #134, .T. ) ;
#23 = SHAPE_DEFINITION_REPRESENTATION ( #29, #138 ) ;
#24 = CARTESIAN_POINT ( 'NONE',  ( 3.910459099504308727E-14, 0.6999999999999984013, 11.19999999999999751 ) ) ;
#25 = VERTEX_POINT ( 'NONE', #104 ) ;
#26 = CARTESIAN_POINT ( 'NONE',  ( 1.040461438975253866E-13, -3.649447461459112464E-15, 29.80000000000000426 ) ) ;
#27 = CC_DESIGN_PERSON_AND_ORGANIZATION_ASSIGNMENT ( #16, #78, ( #61 ) ) ;
#28 = MECHANICAL_CONTEXT ( 'NONE', #149, 'mechanical' ) ;
#29 = PRODUCT_DEFINITION_SHAPE ( 'NONE', 'NONE',  #172 ) ;
#30 = DATE_TIME_ROLE ( 'creation_date' ) ;
#31 = ORIENTED_EDGE ( 'NONE', *, *, #118, .T. ) ;
#32 = EDGE_LOOP ( 'NONE', ( #19 ) ) ;
#33 = APPROVAL_STATUS ( 'not_yet_approved' ) ;
#34 = DIRECTION ( 'NONE',  ( 4.275831445896957731E-31, 1.000000000000000000, 1.224646799147352961E-16 ) ) ;
#35 = APPROVAL_ROLE ( '' ) ;
#36 = EDGE_LOOP ( 'NONE', ( #7 ) ) ;
#37 = FACE_OUTER_BOUND ( 'NONE', #155, .T. ) ;
#38 = CARTESIAN_POINT ( 'NONE',  ( 3.940696214867083139E-14, -1.382210167432284378E-15, 11.28660254037844091 ) ) ;
#39 = PLANE ( 'NONE',  #146 ) ;
#40 = FACE_OUTER_BOUND ( 'NONE', #32, .T. ) ;
#41 = CC_DESIGN_PERSON_AND_ORGANIZATION_ASSIGNMENT ( #15, #1, ( #172 ) ) ;
#42 = AXIS2_PLACEMENT_3D ( 'NONE', #176, #18, #66 ) ;
#43 = CONICAL_SURFACE ( 'NONE', #140, 0.7499999999999977796, 0.5235987755982843828 ) ;
#44 = CARTESIAN_POINT ( 'NONE',  ( 3.910459099504308727E-14, 0.6999999999999984013, 11.19999999999999751 ) ) ;
#45 = VERTEX_POINT ( 'NONE', #59 ) ;
#46 = APPROVAL ( #131, 'UNSPECIFIED' ) ;
#47 =( NAMED_UNIT ( * ) SI_UNIT ( $, .STERADIAN. ) SOLID_ANGLE_UNIT ( ) );
#48 = EDGE_LOOP ( 'NONE', ( #51 ) ) ;
#49 = CONICAL_SURFACE ( 'NONE', #64, 0.5499999999999990452, 0.7853981633974602694 ) ;
#50 = DIRECTION ( 'NONE',  ( -3.491481338843133355E-15, 1.224646799147353207E-16, -1.000000000000000000 ) ) ;
#51 = ORIENTED_EDGE ( 'NONE', *, *, #223, .T. ) ;
#52 = CLOSED_SHELL ( 'NONE', ( #181, #212, #95, #83, #89 ) ) ;
#53 = FACE_OUTER_BOUND ( 'NONE', #159, .T. ) ;
#54 = VERTEX_POINT ( 'NONE', #24 ) ;
#55 = DIRECTION ( 'NONE',  ( 3.491481338843133355E-15, -1.224646799147353207E-16, 1.000000000000000000 ) ) ;
#56 = DIRECTION ( 'NONE',  ( -4.275831445896958607E-31, -1.000000000000000000, -1.224646799147353207E-16 ) ) ;
#57 = AXIS2_PLACEMENT_3D ( 'NONE', #211, #210, #189 ) ;
#58 = COORDINATED_UNIVERSAL_TIME_OFFSET ( 1, 0, .AHEAD. ) ;
#59 = CARTESIAN_POINT ( 'NONE',  ( 1.468525547006336007E-15, 0.6999999999999988454, 0.4206024333192961984 ) ) ;
#60 = PERSON_AND_ORGANIZATION_ROLE ( 'design_owner' ) ;
#61 = PRODUCT_DEFINITION_FORMATION_WITH_SPECIFIED_SOURCE ( 'ANY', '', #100, .NOT_KNOWN. ) ;
#62 = CIRCLE ( 'NONE', #153, 0.6999999999999988454 ) ;
#63 = FACE_BOUND ( 'NONE', #36, .T. ) ;
#64 = AXIS2_PLACEMENT_3D ( 'NONE', #218, #116, #139 ) ;
#65 = LOCAL_TIME ( 15, 48, 13.00000000000000000, #113 ) ;
#66 = DIRECTION ( 'NONE',  ( 0.0000000000000000000, 1.000000000000000000, 0.0000000000000000000 ) ) ;
#67 = AXIS2_PLACEMENT_3D ( 'NONE', #38, #220, #184 ) ;
#68 = DIRECTION ( 'NONE',  ( -4.275831445896958607E-31, -1.000000000000000000, -1.224646799147353207E-16 ) ) ;
#69 = CARTESIAN_POINT ( 'NONE',  ( 3.910459099504308727E-14, 2.176915144653931760E-31, 11.19999999999999751 ) ) ;
#70 = DIRECTION ( 'NONE',  ( -3.491481338843133355E-15, 1.224646799147353207E-16, -1.000000000000000000 ) ) ;
#71 = COORDINATED_UNIVERSAL_TIME_OFFSET ( 1, 0, .AHEAD. ) ;
#72 = AXIS2_PLACEMENT_3D ( 'NONE', #103, #161, #34 ) ;
#73 = SECURITY_CLASSIFICATION ( '', '', #213 ) ;
#74 = AXIS2_PLACEMENT_3D ( 'NONE', #101, #50, #87 ) ;
#75 = CIRCLE ( 'NONE', #170, 0.6999999999999997335 ) ;
#76 = APPROVAL_ROLE ( '' ) ;
#77 = CC_DESIGN_PERSON_AND_ORGANIZATION_ASSIGNMENT ( #154, #5, ( #61 ) ) ;
#78 = PERSON_AND_ORGANIZATION_ROLE ( 'creator' ) ;
#79 = CC_DESIGN_APPROVAL ( #200, ( #73 ) ) ;
#80 = EDGE_LOOP ( 'NONE', ( #137 ) ) ;
#81 = APPROVAL_PERSON_ORGANIZATION ( #94, #185, #76 ) ;
#82 = EDGE_LOOP ( 'NONE', ( #31 ) ) ;
#83 = ADVANCED_FACE ( 'NONE', ( #216, #63 ), #49, .T. ) ;
#84 = ORIENTED_EDGE ( 'NONE', *, *, #22, .F. ) ;
#85 = DIRECTION ( 'NONE',  ( 0.0000000000000000000, 1.000000000000000000, 0.0000000000000000000 ) ) ;
#86 = CARTESIAN_POINT ( 'NONE',  ( 3.910459099504308727E-14, -1.371604415045035316E-15, 11.19999999999999751 ) ) ;
#87 = DIRECTION ( 'NONE',  ( 4.275831445896958607E-31, 1.000000000000000000, 1.224646799147353454E-16 ) ) ;
#88 = AXIS2_PLACEMENT_3D ( 'NONE', #26, #123, #164 ) ;
#89 = ADVANCED_FACE ( 'NONE', ( #53 ), #99, .F. ) ;
#90 = DATE_AND_TIME ( #171, #207 ) ;
#91 =( NAMED_UNIT ( * ) PLANE_ANGLE_UNIT ( ) SI_UNIT ( $, .RADIAN. ) );
#92 = CIRCLE ( 'NONE', #88, 0.7499999999999991118 ) ;
#93 = LOCAL_TIME ( 15, 48, 13.00000000000000000, #130 ) ;
#94 = PERSON_AND_ORGANIZATION ( #199, #109 ) ;
#95 = ADVANCED_FACE ( 'NONE', ( #177, #20 ), #157, .T. ) ;
#96 = CALENDAR_DATE ( 2021, 7, 10 ) ;
#97 = ORIENTED_EDGE ( 'NONE', *, *, #126, .T. ) ;
#98 = LOCAL_TIME ( 15, 48, 13.00000000000000000, #71 ) ;
#99 = PLANE ( 'NONE',  #147 ) ;
#100 = PRODUCT ( '460', '460', '', ( #28 ) ) ;
#101 = CARTESIAN_POINT ( 'NONE',  ( 0.0000000000000000000, 0.0000000000000000000, 0.0000000000000000000 ) ) ;
#102 = APPLICATION_CONTEXT ( 'configuration controlled 3d designs of mechanical parts and assemblies' ) ;
#103 = CARTESIAN_POINT ( 'NONE',  ( 0.0000000000000000000, 0.0000000000000000000, 0.0000000000000000000 ) ) ;
#104 = CARTESIAN_POINT ( 'NONE',  ( 1.047444401652940007E-13, 0.5499999999999953815, 30.00000000000000000 ) ) ;
#105 = DIRECTION ( 'NONE',  ( 3.491481338843133355E-15, -1.224646799147353207E-16, 1.000000000000000000 ) ) ;
#106 = FACE_OUTER_BOUND ( 'NONE', #197, .T. ) ;
#107 = EDGE_CURVE ( 'NONE', #54, #54, #214, .T. ) ;
#108 = CALENDAR_DATE ( 2021, 7, 10 ) ;
#109 = ORGANIZATION ( 'UNSPECIFIED', 'UNSPECIFIED', '' ) ;
#110 = PERSON_AND_ORGANIZATION ( #199, #109 ) ;
#111 = MANIFOLD_SOLID_BREP ( 'Corps-Déplacer/Copier1[1]', #52 ) ;
#112 = MANIFOLD_SOLID_BREP ( 'Corps-Déplacer/Copier1[2]', #187 ) ;
#113 = COORDINATED_UNIVERSAL_TIME_OFFSET ( 1, 0, .AHEAD. ) ;
#114 = APPLICATION_PROTOCOL_DEFINITION ( 'international standard', 'config_control_design', 1994, #149 ) ;
#115 = PERSON_AND_ORGANIZATION ( #199, #109 ) ;
#116 = DIRECTION ( 'NONE',  ( -3.491481338843133355E-15, 1.224646799147353207E-16, -1.000000000000000000 ) ) ;
#117 = COORDINATED_UNIVERSAL_TIME_OFFSET ( 1, 0, .AHEAD. ) ;
#118 = EDGE_CURVE ( 'NONE', #14, #14, #92, .T. ) ;
#119 = EDGE_LOOP ( 'NONE', ( #156 ) ) ;
#120 =( GEOMETRIC_REPRESENTATION_CONTEXT ( 3 ) GLOBAL_UNCERTAINTY_ASSIGNED_CONTEXT ( ( #127 ) ) GLOBAL_UNIT_ASSIGNED_CONTEXT ( ( #152, #91, #47 ) ) REPRESENTATION_CONTEXT ( 'NONE', 'WORKASPACE' ) );
#121 = CARTESIAN_POINT ( 'NONE',  ( 3.940696214867083139E-14, -1.382210167432284378E-15, 11.28660254037844091 ) ) ;
#122 = CARTESIAN_POINT ( 'NONE',  ( 1.468525547006335613E-15, -5.150894236780640297E-17, 0.4206024333192960873 ) ) ;
#123 = DIRECTION ( 'NONE',  ( -3.491481338843133355E-15, 1.224646799147353207E-16, -1.000000000000000000 ) ) ;
#124 = CC_DESIGN_SECURITY_CLASSIFICATION ( #73, ( #61 ) ) ;
#125 = CARTESIAN_POINT ( 'NONE',  ( 3.910459099504308727E-14, 2.176915144653931760E-31, 11.19999999999999751 ) ) ;
#126 = EDGE_CURVE ( 'NONE', #45, #45, #62, .T. ) ;
#127 = UNCERTAINTY_MEASURE_WITH_UNIT (LENGTH_MEASURE( 1.000000000000000082E-05 ), #152, 'distance_accuracy_value', 'NONE');
#128 = APPROVAL_DATE_TIME ( #90, #185 ) ;
#129 = CARTESIAN_POINT ( 'NONE',  ( 1.040461438975253866E-13, 0.7499999999999954481, 29.80000000000000426 ) ) ;
#130 = COORDINATED_UNIVERSAL_TIME_OFFSET ( 1, 0, .AHEAD. ) ;
#131 = APPROVAL_STATUS ( 'not_yet_approved' ) ;
#132 = DIRECTION ( 'NONE',  ( 4.275831445896958607E-31, 1.000000000000000000, 1.224646799147353207E-16 ) ) ;
#133 = FACE_OUTER_BOUND ( 'NONE', #180, .T. ) ;
#134 = CIRCLE ( 'NONE', #42, 0.5499999999999990452 ) ;
#135 = AXIS2_PLACEMENT_3D ( 'NONE', #69, #186, #56 ) ;
#136 = ORIENTED_EDGE ( 'NONE', *, *, #107, .F. ) ;
#137 = ORIENTED_EDGE ( 'NONE', *, *, #190, .F. ) ;
#138 = ADVANCED_BREP_SHAPE_REPRESENTATION ( '460', ( #111, #112, #57 ), #120 ) ;
#139 = DIRECTION ( 'NONE',  ( 0.0000000000000000000, 1.000000000000000000, 0.0000000000000000000 ) ) ;
#140 = AXIS2_PLACEMENT_3D ( 'NONE', #121, #202, #183 ) ;
#141 = CARTESIAN_POINT ( 'NONE',  ( 3.910459099504308727E-14, -1.371604415045035316E-15, 11.19999999999999751 ) ) ;
#142 = FACE_BOUND ( 'NONE', #80, .T. ) ;
#143 = PLANE ( 'NONE',  #135 ) ;
#144 = CC_DESIGN_DATE_AND_TIME_ASSIGNMENT ( #173, #30, ( #172 ) ) ;
#145 = APPROVAL_DATE_TIME ( #167, #200 ) ;
#146 = AXIS2_PLACEMENT_3D ( 'NONE', #125, #55, #68 ) ;
#147 = AXIS2_PLACEMENT_3D ( 'NONE', #195, #194, #132 ) ;
#148 = APPROVAL_ROLE ( '' ) ;
#149 = APPLICATION_CONTEXT ( 'configuration controlled 3d designs of mechanical parts and assemblies' ) ;
#150 = APPROVAL_DATE_TIME ( #13, #46 ) ;
#151 = CC_DESIGN_DATE_AND_TIME_ASSIGNMENT ( #182, #178, ( #73 ) ) ;
#152 =( LENGTH_UNIT ( ) NAMED_UNIT ( * ) SI_UNIT ( .MILLI., .METRE. ) );
#153 = AXIS2_PLACEMENT_3D ( 'NONE', #122, #70, #221 ) ;
#154 = PERSON_AND_ORGANIZATION ( #199, #109 ) ;
#155 = EDGE_LOOP ( 'NONE', ( #198 ) ) ;
#156 = ORIENTED_EDGE ( 'NONE', *, *, #118, .F. ) ;
#157 = CYLINDRICAL_SURFACE ( 'NONE', #74, 0.7499999999999984457 ) ;
#158 = LOCAL_TIME ( 15, 48, 13.00000000000000000, #117 ) ;
#159 = EDGE_LOOP ( 'NONE', ( #84 ) ) ;
#160 = PRODUCT_RELATED_PRODUCT_CATEGORY ( 'detail', '', ( #100 ) ) ;
#161 = DIRECTION ( 'NONE',  ( -3.491481338843133355E-15, 1.224646799147353207E-16, -1.000000000000000000 ) ) ;
#162 = CARTESIAN_POINT ( 'NONE',  ( 1.468525547006335613E-15, -5.150894236780640297E-17, 0.4206024333192960873 ) ) ;
#163 = CIRCLE ( 'NONE', #67, 0.7499999999999977796 ) ;
#164 = DIRECTION ( 'NONE',  ( 0.0000000000000000000, 1.000000000000000000, 0.0000000000000000000 ) ) ;
#165 = ADVANCED_FACE ( 'NONE', ( #106 ), #17, .T. ) ;
#166 = DIRECTION ( 'NONE',  ( -3.491481338843133355E-15, 1.224646799147353207E-16, -1.000000000000000000 ) ) ;
#167 = DATE_AND_TIME ( #108, #98 ) ;
#168 = APPLICATION_PROTOCOL_DEFINITION ( 'international standard', 'config_control_design', 1994, #102 ) ;
#169 = PERSON_AND_ORGANIZATION ( #199, #109 ) ;
#170 = AXIS2_PLACEMENT_3D ( 'NONE', #141, #204, #203 ) ;
#171 = CALENDAR_DATE ( 2021, 7, 10 ) ;
#172 = PRODUCT_DEFINITION ( 'UNKNOWN', '', #61, #222 ) ;
#173 = DATE_AND_TIME ( #188, #65 ) ;
#174 = APPROVAL_STATUS ( 'not_yet_approved' ) ;
#175 = CC_DESIGN_APPROVAL ( #46, ( #172 ) ) ;
#176 = CARTESIAN_POINT ( 'NONE',  ( 1.047444401652940007E-13, -3.673940397442059178E-15, 30.00000000000000000 ) ) ;
#177 = FACE_OUTER_BOUND ( 'NONE', #21, .T. ) ;
#178 = DATE_TIME_ROLE ( 'classification_date' ) ;
#179 = APPROVAL_PERSON_ORGANIZATION ( #115, #200, #35 ) ;
#180 = EDGE_LOOP ( 'NONE', ( #8 ) ) ;
#181 = ADVANCED_FACE ( 'NONE', ( #40 ), #39, .F. ) ;
#182 = DATE_AND_TIME ( #196, #158 ) ;
#183 = DIRECTION ( 'NONE',  ( 0.0000000000000000000, -1.000000000000000000, 0.0000000000000000000 ) ) ;
#184 = DIRECTION ( 'NONE',  ( 0.0000000000000000000, 1.000000000000000000, 0.0000000000000000000 ) ) ;
#185 = APPROVAL ( #174, 'UNSPECIFIED' ) ;
#186 = DIRECTION ( 'NONE',  ( 3.491481338843133355E-15, -1.224646799147353207E-16, 1.000000000000000000 ) ) ;
#187 = CLOSED_SHELL ( 'NONE', ( #165, #2, #209 ) ) ;
#188 = CALENDAR_DATE ( 2021, 7, 10 ) ;
#189 = DIRECTION ( 'NONE',  ( 1.000000000000000000, 0.0000000000000000000, 0.0000000000000000000 ) ) ;
#190 = EDGE_CURVE ( 'NONE', #208, #208, #75, .T. ) ;
#191 = AXIS2_PLACEMENT_3D ( 'NONE', #162, #105, #9 ) ;
#192 = VERTEX_POINT ( 'NONE', #193 ) ;
#193 = CARTESIAN_POINT ( 'NONE',  ( 3.940696214867083139E-14, 0.7499999999999963363, 11.28660254037844091 ) ) ;
#194 = DIRECTION ( 'NONE',  ( -3.491481338843133355E-15, 1.224646799147353207E-16, -1.000000000000000000 ) ) ;
#195 = CARTESIAN_POINT ( 'NONE',  ( 1.047444401652940007E-13, 4.124339402320045473E-33, 30.00000000000000000 ) ) ;
#196 = CALENDAR_DATE ( 2021, 7, 10 ) ;
#197 = EDGE_LOOP ( 'NONE', ( #97 ) ) ;
#198 = ORIENTED_EDGE ( 'NONE', *, *, #126, .F. ) ;
#199 = PERSON ( 'UNSPECIFIED', 'UNSPECIFIED', 'UNSPECIFIED', ('UNSPECIFIED'), ('UNSPECIFIED'), ('UNSPECIFIED') ) ;
#200 = APPROVAL ( #33, 'UNSPECIFIED' ) ;
#201 = ORIENTED_EDGE ( 'NONE', *, *, #223, .F. ) ;
#202 = DIRECTION ( 'NONE',  ( 3.491481338843133355E-15, -1.224646799147353207E-16, 1.000000000000000000 ) ) ;
#203 = DIRECTION ( 'NONE',  ( 0.0000000000000000000, 1.000000000000000000, 0.0000000000000000000 ) ) ;
#204 = DIRECTION ( 'NONE',  ( -3.491481338843133355E-15, 1.224646799147353207E-16, -1.000000000000000000 ) ) ;
#205 = AXIS2_PLACEMENT_3D ( 'NONE', #86, #166, #85 ) ;
#206 = FACE_OUTER_BOUND ( 'NONE', #48, .T. ) ;
#207 = LOCAL_TIME ( 15, 48, 13.00000000000000000, #58 ) ;
#208 = VERTEX_POINT ( 'NONE', #44 ) ;
#209 = ADVANCED_FACE ( 'NONE', ( #10 ), #143, .T. ) ;
#210 = DIRECTION ( 'NONE',  ( 0.0000000000000000000, 0.0000000000000000000, 1.000000000000000000 ) ) ;
#211 = CARTESIAN_POINT ( 'NONE',  ( 0.0000000000000000000, 0.0000000000000000000, 0.0000000000000000000 ) ) ;
#212 = ADVANCED_FACE ( 'NONE', ( #142, #206 ), #43, .T. ) ;
#213 = SECURITY_CLASSIFICATION_LEVEL ( 'unclassified' ) ;
#214 = CIRCLE ( 'NONE', #205, 0.6999999999999997335 ) ;
#215 = CYLINDRICAL_SURFACE ( 'NONE', #72, 0.6999999999999992895 ) ;
#216 = FACE_OUTER_BOUND ( 'NONE', #119, .T. ) ;
#217 = CC_DESIGN_PERSON_AND_ORGANIZATION_ASSIGNMENT ( #169, #60, ( #100 ) ) ;
#218 = CARTESIAN_POINT ( 'NONE',  ( 1.047444401652940007E-13, -3.673940397442059178E-15, 30.00000000000000000 ) ) ;
#219 = CC_DESIGN_APPROVAL ( #185, ( #61 ) ) ;
#220 = DIRECTION ( 'NONE',  ( -3.491481338843133355E-15, 1.224646799147353207E-16, -1.000000000000000000 ) ) ;
#221 = DIRECTION ( 'NONE',  ( 5.502656983963540142E-31, 1.000000000000000000, 1.548860246407866048E-16 ) ) ;
#222 = DESIGN_CONTEXT ( 'detailed design', #102, 'design' ) ;
#223 = EDGE_CURVE ( 'NONE', #192, #192, #163, .T. ) ;
ENDSEC;
END-ISO-10303-21;
