ISO-10303-21;
HEADER;
FILE_DESCRIPTION (( 'STEP AP203' ),
    '1' );
FILE_NAME ('45905.step',
    '2021-10-15T13:34:55',
    ( '' ),
    ( '' ),
    'SwSTEP 2.0',
    'SolidWorks 2019',
    '' );
FILE_SCHEMA (( 'CONFIG_CONTROL_DESIGN' ));
ENDSEC;

DATA;
#1 = APPROVAL_ROLE ( '' ) ;
#2 = EDGE_LOOP ( 'NONE', ( #70 ) ) ;
#3 = CLOSED_SHELL ( 'NONE', ( #33, #76, #68, #126 ) ) ;
#4 = CC_DESIGN_APPROVAL ( #186, ( #183 ) ) ;
#5 = CARTESIAN_POINT ( 'NONE',  ( 2.304377683636468267E-13, 1.837205733760763527E-32, 66.00000000000000000 ) ) ;
#6 = AXIS2_PLACEMENT_3D ( 'NONE', #74, #91, #11 ) ;
#7 = CARTESIAN_POINT ( 'NONE',  ( 3.748846078462727902E-15, 2.949999999999992628, 1.073712191085308687 ) ) ;
#8 = ADVANCED_FACE ( 'NONE', ( #84 ), #65, .T. ) ;
#9 = PLANE ( 'NONE',  #37 ) ;
#10 = AXIS2_PLACEMENT_3D ( 'NONE', #191, #114, #22 ) ;
#11 = DIRECTION ( 'NONE',  ( -5.222860866134889685E-31, -1.000000000000000000, -1.470104640658314699E-16 ) ) ;
#12 = MECHANICAL_CONTEXT ( 'NONE', #129, 'mechanical' ) ;
#13 = DATE_AND_TIME ( #201, #176 ) ;
#14 = PERSON_AND_ORGANIZATION_ROLE ( 'creator' ) ;
#15 = EDGE_CURVE ( 'NONE', #40, #40, #199, .T. ) ;
#16 = PERSON ( 'UNSPECIFIED', 'UNSPECIFIED', 'UNSPECIFIED', ('UNSPECIFIED'), ('UNSPECIFIED'), ('UNSPECIFIED') ) ;
#17 = CLOSED_SHELL ( 'NONE', ( #92, #178, #8 ) ) ;
#18 = AXIS2_PLACEMENT_3D ( 'NONE', #57, #117, #87 ) ;
#19 = EDGE_CURVE ( 'NONE', #93, #93, #25, .T. ) ;
#20 = DIRECTION ( 'NONE',  ( 3.491481338843133355E-15, -1.224646799147353207E-16, 1.000000000000000000 ) ) ;
#21 = ORIENTED_EDGE ( 'NONE', *, *, #15, .T. ) ;
#22 = DIRECTION ( 'NONE',  ( 5.222860866134889685E-31, 1.000000000000000000, 1.470104640658314699E-16 ) ) ;
#23 = VERTEX_POINT ( 'NONE', #167 ) ;
#24 = VERTEX_POINT ( 'NONE', #58 ) ;
#25 = CIRCLE ( 'NONE', #144, 2.949999999999996181 ) ;
#26 = DIRECTION ( 'NONE',  ( 0.0000000000000000000, 1.000000000000000000, 0.0000000000000000000 ) ) ;
#27 = DIRECTION ( 'NONE',  ( -3.491481338843133355E-15, 1.224646799147353207E-16, -1.000000000000000000 ) ) ;
#28 = CC_DESIGN_PERSON_AND_ORGANIZATION_ASSIGNMENT ( #147, #156, ( #128 ) ) ;
#29 = PERSON_AND_ORGANIZATION ( #16, #182 ) ;
#30 = APPROVAL_STATUS ( 'not_yet_approved' ) ;
#31 = CC_DESIGN_APPROVAL ( #131, ( #35 ) ) ;
#32 = EDGE_LOOP ( 'NONE', ( #99 ) ) ;
#33 = ADVANCED_FACE ( 'NONE', ( #115 ), #55, .F. ) ;
#34 = EDGE_LOOP ( 'NONE', ( #164 ) ) ;
#35 = SECURITY_CLASSIFICATION ( '', '', #81 ) ;
#36 = ORIENTED_EDGE ( 'NONE', *, *, #19, .F. ) ;
#37 = AXIS2_PLACEMENT_3D ( 'NONE', #5, #134, #197 ) ;
#38 = FACE_OUTER_BOUND ( 'NONE', #52, .T. ) ;
#39 = CARTESIAN_POINT ( 'NONE',  ( 9.776147748760773395E-14, 2.212145679426231761E-32, 28.00000000000000000 ) ) ;
#40 = VERTEX_POINT ( 'NONE', #7 ) ;
#41 = AXIS2_PLACEMENT_3D ( 'NONE', #61, #95, #49 ) ;
#42 =( NAMED_UNIT ( * ) PLANE_ANGLE_UNIT ( ) SI_UNIT ( $, .RADIAN. ) );
#43 = CARTESIAN_POINT ( 'NONE',  ( 2.304377683636468267E-13, -8.082668874372532400E-15, 66.00000000000000000 ) ) ;
#44 = CC_DESIGN_PERSON_AND_ORGANIZATION_ASSIGNMENT ( #161, #187, ( #183 ) ) ;
#45 = DESIGN_CONTEXT ( 'detailed design', #142, 'design' ) ;
#46 = LOCAL_TIME ( 15, 34, 55.00000000000000000, #158 ) ;
#47 = DATE_AND_TIME ( #185, #119 ) ;
#48 = APPROVAL_DATE_TIME ( #63, #139 ) ;
#49 = DIRECTION ( 'NONE',  ( 1.000000000000000000, 0.0000000000000000000, 0.0000000000000000000 ) ) ;
#50 = CC_DESIGN_DATE_AND_TIME_ASSIGNMENT ( #141, #125, ( #183 ) ) ;
#51 = EDGE_LOOP ( 'NONE', ( #163 ) ) ;
#52 = EDGE_LOOP ( 'NONE', ( #36 ) ) ;
#53 = AXIS2_PLACEMENT_3D ( 'NONE', #39, #104, #105 ) ;
#54 = DIRECTION ( 'NONE',  ( 0.0000000000000000000, 1.000000000000000000, 0.0000000000000000000 ) ) ;
#55 = PLANE ( 'NONE',  #53 ) ;
#56 = FACE_OUTER_BOUND ( 'NONE', #148, .T. ) ;
#57 = CARTESIAN_POINT ( 'NONE',  ( 0.0000000000000000000, 0.0000000000000000000, 0.0000000000000000000 ) ) ;
#58 = CARTESIAN_POINT ( 'NONE',  ( 2.304377683636468267E-13, 2.449999999999992628, 66.00000000000000000 ) ) ;
#59 = CARTESIAN_POINT ( 'NONE',  ( 2.286920276942252663E-13, 2.949999999999992628, 65.50000000000000000 ) ) ;
#60 = COORDINATED_UNIVERSAL_TIME_OFFSET ( 1, 0, .AHEAD. ) ;
#61 = CARTESIAN_POINT ( 'NONE',  ( 0.0000000000000000000, 0.0000000000000000000, 0.0000000000000000000 ) ) ;
#62 = APPROVAL_DATE_TIME ( #13, #186 ) ;
#63 = DATE_AND_TIME ( #122, #88 ) ;
#64 = CC_DESIGN_PERSON_AND_ORGANIZATION_ASSIGNMENT ( #96, #14, ( #128 ) ) ;
#65 = PLANE ( 'NONE',  #120 ) ;
#66 = DIRECTION ( 'NONE',  ( -4.275831445896958607E-31, -1.000000000000000000, -1.224646799147353207E-16 ) ) ;
#67 = EDGE_LOOP ( 'NONE', ( #111 ) ) ;
#68 = ADVANCED_FACE ( 'NONE', ( #152, #194 ), #109, .T. ) ;
#69 = EDGE_LOOP ( 'NONE', ( #149 ) ) ;
#70 = ORIENTED_EDGE ( 'NONE', *, *, #15, .F. ) ;
#71 = PRODUCT_RELATED_PRODUCT_CATEGORY ( 'detail', '', ( #85 ) ) ;
#72 = FACE_OUTER_BOUND ( 'NONE', #34, .T. ) ;
#73 = AXIS2_PLACEMENT_3D ( 'NONE', #181, #116, #136 ) ;
#74 = CARTESIAN_POINT ( 'NONE',  ( 3.748846078462726325E-15, -1.314918198018114036E-16, 1.073712191085308243 ) ) ;
#75 = VERTEX_POINT ( 'NONE', #59 ) ;
#76 = ADVANCED_FACE ( 'NONE', ( #38, #72 ), #151, .T. ) ;
#77 = CALENDAR_DATE ( 2021, 15, 10 ) ;
#78 = PERSON_AND_ORGANIZATION_ROLE ( 'classification_officer' ) ;
#79 = CC_DESIGN_APPROVAL ( #139, ( #128 ) ) ;
#80 = CALENDAR_DATE ( 2021, 15, 10 ) ;
#81 = SECURITY_CLASSIFICATION_LEVEL ( 'unclassified' ) ;
#82 = EDGE_CURVE ( 'NONE', #23, #23, #102, .T. ) ;
#83 = AXIS2_PLACEMENT_3D ( 'NONE', #137, #154, #26 ) ;
#84 = FACE_OUTER_BOUND ( 'NONE', #32, .T. ) ;
#85 = PRODUCT ( '45905', '45905', '', ( #12 ) ) ;
#86 = EDGE_LOOP ( 'NONE', ( #21 ) ) ;
#87 = DIRECTION ( 'NONE',  ( 4.275831445896958607E-31, 1.000000000000000000, 1.224646799147353207E-16 ) ) ;
#88 = LOCAL_TIME ( 15, 34, 55.00000000000000000, #124 ) ;
#89 = DIRECTION ( 'NONE',  ( 0.0000000000000000000, 1.000000000000000000, 0.0000000000000000000 ) ) ;
#90 = MANIFOLD_SOLID_BREP ( 'Corps-Déplacer/Copier1[1]', #3 ) ;
#91 = DIRECTION ( 'NONE',  ( 3.491481338843133355E-15, -1.224646799147353207E-16, 1.000000000000000000 ) ) ;
#92 = ADVANCED_FACE ( 'NONE', ( #169 ), #97, .T. ) ;
#93 = VERTEX_POINT ( 'NONE', #121 ) ;
#94 = APPROVAL_STATUS ( 'not_yet_approved' ) ;
#95 = DIRECTION ( 'NONE',  ( 0.0000000000000000000, 0.0000000000000000000, 1.000000000000000000 ) ) ;
#96 = PERSON_AND_ORGANIZATION ( #16, #182 ) ;
#97 = CONICAL_SURFACE ( 'NONE', #6, 2.949999999999992628, 1.221730476396026610 ) ;
#98 = PERSON_AND_ORGANIZATION_ROLE ( 'design_owner' ) ;
#99 = ORIENTED_EDGE ( 'NONE', *, *, #82, .F. ) ;
#100 = EDGE_LOOP ( 'NONE', ( #101 ) ) ;
#101 = ORIENTED_EDGE ( 'NONE', *, *, #110, .F. ) ;
#102 = CIRCLE ( 'NONE', #73, 2.949999999999996181 ) ;
#103 = CARTESIAN_POINT ( 'NONE',  ( 2.286920276942252663E-13, -8.021436534415164826E-15, 65.50000000000000000 ) ) ;
#104 = DIRECTION ( 'NONE',  ( 3.491481338843133355E-15, -1.224646799147353207E-16, 1.000000000000000000 ) ) ;
#105 = DIRECTION ( 'NONE',  ( -4.275831445896958607E-31, -1.000000000000000000, -1.224646799147353207E-16 ) ) ;
#106 =( GEOMETRIC_REPRESENTATION_CONTEXT ( 3 ) GLOBAL_UNCERTAINTY_ASSIGNED_CONTEXT ( ( #157 ) ) GLOBAL_UNIT_ASSIGNED_CONTEXT ( ( #177, #42, #138 ) ) REPRESENTATION_CONTEXT ( 'NONE', 'WORKASPACE' ) );
#107 = DATE_TIME_ROLE ( 'classification_date' ) ;
#108 = APPROVAL_DATE_TIME ( #203, #131 ) ;
#109 = CONICAL_SURFACE ( 'NONE', #165, 2.450000000000000622, 0.7853981633974473908 ) ;
#110 = EDGE_CURVE ( 'NONE', #24, #24, #168, .T. ) ;
#111 = ORIENTED_EDGE ( 'NONE', *, *, #110, .T. ) ;
#112 = CARTESIAN_POINT ( 'NONE',  ( 9.776147748760773395E-14, 2.212145679426231761E-32, 28.00000000000000000 ) ) ;
#113 = AXIS2_PLACEMENT_3D ( 'NONE', #103, #27, #89 ) ;
#114 = DIRECTION ( 'NONE',  ( -3.491481338843133355E-15, 1.224646799147353207E-16, -1.000000000000000000 ) ) ;
#115 = FACE_OUTER_BOUND ( 'NONE', #69, .T. ) ;
#116 = DIRECTION ( 'NONE',  ( -3.491481338843133355E-15, 1.224646799147353207E-16, -1.000000000000000000 ) ) ;
#117 = DIRECTION ( 'NONE',  ( -3.491481338843133355E-15, 1.224646799147353207E-16, -1.000000000000000000 ) ) ;
#118 = FACE_OUTER_BOUND ( 'NONE', #100, .T. ) ;
#119 = LOCAL_TIME ( 15, 34, 55.00000000000000000, #123 ) ;
#120 = AXIS2_PLACEMENT_3D ( 'NONE', #112, #20, #66 ) ;
#121 = CARTESIAN_POINT ( 'NONE',  ( 9.776147748760773395E-14, 2.949999999999992628, 28.00000000000000000 ) ) ;
#122 = CALENDAR_DATE ( 2021, 15, 10 ) ;
#123 = COORDINATED_UNIVERSAL_TIME_OFFSET ( 1, 0, .AHEAD. ) ;
#124 = COORDINATED_UNIVERSAL_TIME_OFFSET ( 1, 0, .AHEAD. ) ;
#125 = DATE_TIME_ROLE ( 'creation_date' ) ;
#126 = ADVANCED_FACE ( 'NONE', ( #118 ), #9, .F. ) ;
#127 = COORDINATED_UNIVERSAL_TIME_OFFSET ( 1, 0, .AHEAD. ) ;
#128 = PRODUCT_DEFINITION_FORMATION_WITH_SPECIFIED_SOURCE ( 'ANY', '', #85, .NOT_KNOWN. ) ;
#129 = APPLICATION_CONTEXT ( 'configuration controlled 3d designs of mechanical parts and assemblies' ) ;
#130 = ORIENTED_EDGE ( 'NONE', *, *, #82, .T. ) ;
#131 = APPROVAL ( #30, 'UNSPECIFIED' ) ;
#132 = AXIS2_PLACEMENT_3D ( 'NONE', #180, #200, #179 ) ;
#133 = CARTESIAN_POINT ( 'NONE',  ( 9.776147748760773395E-14, -3.429011037612589276E-15, 28.00000000000000000 ) ) ;
#134 = DIRECTION ( 'NONE',  ( -3.491481338843133355E-15, 1.224646799147353207E-16, -1.000000000000000000 ) ) ;
#135 = LOCAL_TIME ( 15, 34, 55.00000000000000000, #60 ) ;
#136 = DIRECTION ( 'NONE',  ( 0.0000000000000000000, 1.000000000000000000, 0.0000000000000000000 ) ) ;
#137 = CARTESIAN_POINT ( 'NONE',  ( 2.304377683636468267E-13, -8.082668874372532400E-15, 66.00000000000000000 ) ) ;
#138 =( NAMED_UNIT ( * ) SI_UNIT ( $, .STERADIAN. ) SOLID_ANGLE_UNIT ( ) );
#139 = APPROVAL ( #94, 'UNSPECIFIED' ) ;
#140 = ADVANCED_BREP_SHAPE_REPRESENTATION ( '45905', ( #90, #150, #41 ), #106 ) ;
#141 = DATE_AND_TIME ( #77, #135 ) ;
#142 = APPLICATION_CONTEXT ( 'configuration controlled 3d designs of mechanical parts and assemblies' ) ;
#143 = APPROVAL_STATUS ( 'not_yet_approved' ) ;
#144 = AXIS2_PLACEMENT_3D ( 'NONE', #133, #192, #54 ) ;
#145 = PRODUCT_DEFINITION_SHAPE ( 'NONE', 'NONE',  #183 ) ;
#146 = APPROVAL_ROLE ( '' ) ;
#147 = PERSON_AND_ORGANIZATION ( #16, #182 ) ;
#148 = EDGE_LOOP ( 'NONE', ( #130 ) ) ;
#149 = ORIENTED_EDGE ( 'NONE', *, *, #19, .T. ) ;
#150 = MANIFOLD_SOLID_BREP ( 'Corps-Déplacer/Copier1[2]', #17 ) ;
#151 = CYLINDRICAL_SURFACE ( 'NONE', #18, 2.949999999999998401 ) ;
#152 = FACE_OUTER_BOUND ( 'NONE', #51, .T. ) ;
#153 = DIRECTION ( 'NONE',  ( 0.0000000000000000000, 1.000000000000000000, 0.0000000000000000000 ) ) ;
#154 = DIRECTION ( 'NONE',  ( -3.491481338843133355E-15, 1.224646799147353207E-16, -1.000000000000000000 ) ) ;
#155 = CC_DESIGN_SECURITY_CLASSIFICATION ( #35, ( #128 ) ) ;
#156 = PERSON_AND_ORGANIZATION_ROLE ( 'design_supplier' ) ;
#157 = UNCERTAINTY_MEASURE_WITH_UNIT (LENGTH_MEASURE( 1.000000000000000082E-05 ), #177, 'distance_accuracy_value', 'NONE');
#158 = COORDINATED_UNIVERSAL_TIME_OFFSET ( 1, 0, .AHEAD. ) ;
#159 = CIRCLE ( 'NONE', #113, 2.950000000000000178 ) ;
#160 = APPROVAL_ROLE ( '' ) ;
#161 = PERSON_AND_ORGANIZATION ( #16, #182 ) ;
#162 = CC_DESIGN_DATE_AND_TIME_ASSIGNMENT ( #47, #107, ( #35 ) ) ;
#163 = ORIENTED_EDGE ( 'NONE', *, *, #198, .F. ) ;
#164 = ORIENTED_EDGE ( 'NONE', *, *, #198, .T. ) ;
#165 = AXIS2_PLACEMENT_3D ( 'NONE', #43, #196, #153 ) ;
#166 = CYLINDRICAL_SURFACE ( 'NONE', #132, 2.949999999999994404 ) ;
#167 = CARTESIAN_POINT ( 'NONE',  ( 9.776147748760773395E-14, 2.949999999999992628, 28.00000000000000000 ) ) ;
#168 = CIRCLE ( 'NONE', #83, 2.450000000000000622 ) ;
#169 = FACE_OUTER_BOUND ( 'NONE', #86, .T. ) ;
#170 = CC_DESIGN_PERSON_AND_ORGANIZATION_ASSIGNMENT ( #173, #98, ( #85 ) ) ;
#171 = PERSON_AND_ORGANIZATION ( #16, #182 ) ;
#172 = APPROVAL_PERSON_ORGANIZATION ( #171, #139, #1 ) ;
#173 = PERSON_AND_ORGANIZATION ( #16, #182 ) ;
#174 = PERSON_AND_ORGANIZATION ( #16, #182 ) ;
#175 = APPLICATION_PROTOCOL_DEFINITION ( 'international standard', 'config_control_design', 1994, #129 ) ;
#176 = LOCAL_TIME ( 15, 34, 55.00000000000000000, #127 ) ;
#177 =( LENGTH_UNIT ( ) NAMED_UNIT ( * ) SI_UNIT ( .MILLI., .METRE. ) );
#178 = ADVANCED_FACE ( 'NONE', ( #195, #56 ), #166, .T. ) ;
#179 = DIRECTION ( 'NONE',  ( 4.275831445896958607E-31, 1.000000000000000000, 1.224646799147353207E-16 ) ) ;
#180 = CARTESIAN_POINT ( 'NONE',  ( 0.0000000000000000000, 0.0000000000000000000, 0.0000000000000000000 ) ) ;
#181 = CARTESIAN_POINT ( 'NONE',  ( 9.776147748760773395E-14, -3.429011037612589276E-15, 28.00000000000000000 ) ) ;
#182 = ORGANIZATION ( 'UNSPECIFIED', 'UNSPECIFIED', '' ) ;
#183 = PRODUCT_DEFINITION ( 'UNKNOWN', '', #128, #45 ) ;
#184 = PERSON_AND_ORGANIZATION ( #16, #182 ) ;
#185 = CALENDAR_DATE ( 2021, 15, 10 ) ;
#186 = APPROVAL ( #143, 'UNSPECIFIED' ) ;
#187 = PERSON_AND_ORGANIZATION_ROLE ( 'creator' ) ;
#188 = SHAPE_DEFINITION_REPRESENTATION ( #145, #140 ) ;
#189 = APPROVAL_PERSON_ORGANIZATION ( #29, #186, #160 ) ;
#190 = APPROVAL_PERSON_ORGANIZATION ( #174, #131, #146 ) ;
#191 = CARTESIAN_POINT ( 'NONE',  ( 3.748846078462726325E-15, -1.314918198018114036E-16, 1.073712191085308243 ) ) ;
#192 = DIRECTION ( 'NONE',  ( -3.491481338843133355E-15, 1.224646799147353207E-16, -1.000000000000000000 ) ) ;
#193 = CC_DESIGN_PERSON_AND_ORGANIZATION_ASSIGNMENT ( #184, #78, ( #35 ) ) ;
#194 = FACE_BOUND ( 'NONE', #67, .T. ) ;
#195 = FACE_OUTER_BOUND ( 'NONE', #2, .T. ) ;
#196 = DIRECTION ( 'NONE',  ( -3.491481338843133355E-15, 1.224646799147353207E-16, -1.000000000000000000 ) ) ;
#197 = DIRECTION ( 'NONE',  ( 4.275831445896958607E-31, 1.000000000000000000, 1.224646799147353207E-16 ) ) ;
#198 = EDGE_CURVE ( 'NONE', #75, #75, #159, .T. ) ;
#199 = CIRCLE ( 'NONE', #10, 2.949999999999992628 ) ;
#200 = DIRECTION ( 'NONE',  ( -3.491481338843133355E-15, 1.224646799147353207E-16, -1.000000000000000000 ) ) ;
#201 = CALENDAR_DATE ( 2021, 15, 10 ) ;
#202 = APPLICATION_PROTOCOL_DEFINITION ( 'international standard', 'config_control_design', 1994, #142 ) ;
#203 = DATE_AND_TIME ( #80, #46 ) ;
ENDSEC;
END-ISO-10303-21;
