ISO-10303-21;
HEADER;
FILE_DESCRIPTION (( 'STEP AP203' ),
    '1' );
FILE_NAME ('459.step',
    '2021-10-07T13:48:13',
    ( '' ),
    ( '' ),
    'SwSTEP 2.0',
    'SolidWorks 2019',
    '' );
FILE_SCHEMA (( 'CONFIG_CONTROL_DESIGN' ));
ENDSEC;

DATA;
#1 = DIRECTION ( 'NONE',  ( -3.491481338843133355E-15, 1.224646799147353207E-16, -1.000000000000000000 ) ) ;
#2 = AXIS2_PLACEMENT_3D ( 'NONE', #125, #63, #64 ) ;
#3 = DIRECTION ( 'NONE',  ( 0.0000000000000000000, 1.000000000000000000, 0.0000000000000000000 ) ) ;
#4 = EDGE_CURVE ( 'NONE', #109, #109, #219, .T. ) ;
#5 = DIRECTION ( 'NONE',  ( 0.0000000000000000000, 1.000000000000000000, 0.0000000000000000000 ) ) ;
#6 = AXIS2_PLACEMENT_3D ( 'NONE', #101, #48, #49 ) ;
#7 = DIRECTION ( 'NONE',  ( -3.491481338843133355E-15, 1.224646799147353207E-16, -1.000000000000000000 ) ) ;
#8 = APPROVAL_STATUS ( 'not_yet_approved' ) ;
#9 = ADVANCED_FACE ( 'NONE', ( #26, #175 ), #126, .T. ) ;
#10 = APPROVAL_STATUS ( 'not_yet_approved' ) ;
#11 = ADVANCED_FACE ( 'NONE', ( #127, #83 ), #192, .T. ) ;
#12 = COORDINATED_UNIVERSAL_TIME_OFFSET ( 1, 0, .AHEAD. ) ;
#13 = APPROVAL ( #105, 'UNSPECIFIED' ) ;
#14 = DATE_AND_TIME ( #167, #76 ) ;
#15 = CC_DESIGN_DATE_AND_TIME_ASSIGNMENT ( #217, #184, ( #152 ) ) ;
#16 = ORIENTED_EDGE ( 'NONE', *, *, #94, .F. ) ;
#17 = EDGE_CURVE ( 'NONE', #41, #41, #145, .T. ) ;
#18 = AXIS2_PLACEMENT_3D ( 'NONE', #110, #146, #165 ) ;
#19 = APPLICATION_CONTEXT ( 'configuration controlled 3d designs of mechanical parts and assemblies' ) ;
#20 = ORIENTED_EDGE ( 'NONE', *, *, #118, .F. ) ;
#21 = PLANE ( 'NONE',  #200 ) ;
#22 = DIRECTION ( 'NONE',  ( -3.491481338843133355E-15, 1.224646799147353207E-16, -1.000000000000000000 ) ) ;
#23 = SECURITY_CLASSIFICATION ( '', '', #186 ) ;
#24 = DIRECTION ( 'NONE',  ( 0.0000000000000000000, 1.000000000000000000, 0.0000000000000000000 ) ) ;
#25 = ADVANCED_FACE ( 'NONE', ( #39, #163 ), #194, .T. ) ;
#26 = FACE_OUTER_BOUND ( 'NONE', #154, .T. ) ;
#27 = FACE_OUTER_BOUND ( 'NONE', #92, .T. ) ;
#28 = CIRCLE ( 'NONE', #114, 0.7499999999999991118 ) ;
#29 = COORDINATED_UNIVERSAL_TIME_OFFSET ( 1, 0, .AHEAD. ) ;
#30 = PERSON_AND_ORGANIZATION ( #208, #65 ) ;
#31 = APPROVAL_DATE_TIME ( #133, #98 ) ;
#32 = PERSON_AND_ORGANIZATION ( #208, #65 ) ;
#33 = APPROVAL_DATE_TIME ( #56, #13 ) ;
#34 = AXIS2_PLACEMENT_3D ( 'NONE', #81, #190, #177 ) ;
#35 = PERSON_AND_ORGANIZATION ( #208, #65 ) ;
#36 = ORIENTED_EDGE ( 'NONE', *, *, #88, .T. ) ;
#37 = ORIENTED_EDGE ( 'NONE', *, *, #17, .T. ) ;
#38 = CC_DESIGN_APPROVAL ( #98, ( #69 ) ) ;
#39 = FACE_OUTER_BOUND ( 'NONE', #202, .T. ) ;
#40 = PRODUCT ( '459', '459', '', ( #166 ) ) ;
#41 = VERTEX_POINT ( 'NONE', #207 ) ;
#42 = DIRECTION ( 'NONE',  ( 3.491481338843133355E-15, -1.224646799147353207E-16, 1.000000000000000000 ) ) ;
#43 = DIRECTION ( 'NONE',  ( -4.275831445896958607E-31, -1.000000000000000000, -1.224646799147353207E-16 ) ) ;
#44 = FACE_BOUND ( 'NONE', #93, .T. ) ;
#45 = APPROVAL_DATE_TIME ( #14, #173 ) ;
#46 = AXIS2_PLACEMENT_3D ( 'NONE', #97, #42, #43 ) ;
#47 = VERTEX_POINT ( 'NONE', #168 ) ;
#48 = DIRECTION ( 'NONE',  ( 0.0000000000000000000, 0.0000000000000000000, 1.000000000000000000 ) ) ;
#49 = DIRECTION ( 'NONE',  ( 1.000000000000000000, 0.0000000000000000000, 0.0000000000000000000 ) ) ;
#50 = DESIGN_CONTEXT ( 'detailed design', #62, 'design' ) ;
#51 = AXIS2_PLACEMENT_3D ( 'NONE', #61, #22, #122 ) ;
#52 = PERSON_AND_ORGANIZATION ( #208, #65 ) ;
#53 = MANIFOLD_SOLID_BREP ( 'Corps-Déplacer/Copier1[1]', #106 ) ;
#54 = CC_DESIGN_PERSON_AND_ORGANIZATION_ASSIGNMENT ( #30, #182, ( #40 ) ) ;
#55 = MANIFOLD_SOLID_BREP ( 'Corps-Déplacer/Copier1[2]', #60 ) ;
#56 = DATE_AND_TIME ( #204, #150 ) ;
#57 = APPROVAL_PERSON_ORGANIZATION ( #35, #13, #188 ) ;
#58 = ORIENTED_EDGE ( 'NONE', *, *, #143, .F. ) ;
#59 = EDGE_LOOP ( 'NONE', ( #58 ) ) ;
#60 = CLOSED_SHELL ( 'NONE', ( #196, #25, #107 ) ) ;
#61 = CARTESIAN_POINT ( 'NONE',  ( 0.0000000000000000000, 0.0000000000000000000, 0.0000000000000000000 ) ) ;
#62 = APPLICATION_CONTEXT ( 'configuration controlled 3d designs of mechanical parts and assemblies' ) ;
#63 = DIRECTION ( 'NONE',  ( -3.491481338843133355E-15, 1.224646799147353207E-16, -1.000000000000000000 ) ) ;
#64 = DIRECTION ( 'NONE',  ( 4.275831445896958607E-31, 1.000000000000000000, 1.224646799147353207E-16 ) ) ;
#65 = ORGANIZATION ( 'UNSPECIFIED', 'UNSPECIFIED', '' ) ;
#66 = FACE_OUTER_BOUND ( 'NONE', #221, .T. ) ;
#67 = DIRECTION ( 'NONE',  ( -3.491481338843133355E-15, 1.224646799147353207E-16, -1.000000000000000000 ) ) ;
#68 = CALENDAR_DATE ( 2021, 7, 10 ) ;
#69 = PRODUCT_DEFINITION_FORMATION_WITH_SPECIFIED_SOURCE ( 'ANY', '', #40, .NOT_KNOWN. ) ;
#70 = CARTESIAN_POINT ( 'NONE',  ( 1.040461438975253866E-13, 0.7499999999999954481, 29.80000000000000426 ) ) ;
#71 = PERSON_AND_ORGANIZATION ( #208, #65 ) ;
#72 = CC_DESIGN_SECURITY_CLASSIFICATION ( #23, ( #69 ) ) ;
#73 = COORDINATED_UNIVERSAL_TIME_OFFSET ( 1, 0, .AHEAD. ) ;
#74 = CARTESIAN_POINT ( 'NONE',  ( 3.491481338843133355E-14, -1.224646799147353256E-15, 10.00000000000000000 ) ) ;
#75 = PRODUCT_DEFINITION_SHAPE ( 'NONE', 'NONE',  #152 ) ;
#76 = LOCAL_TIME ( 15, 48, 13.00000000000000000, #29 ) ;
#77 = DATE_AND_TIME ( #195, #203 ) ;
#78 = EDGE_LOOP ( 'NONE', ( #36 ) ) ;
#79 = CONICAL_SURFACE ( 'NONE', #34, 0.6499999999999984679, 1.029744258676649649 ) ;
#80 = CARTESIAN_POINT ( 'NONE',  ( 1.047444401652940007E-13, -3.673940397442059178E-15, 30.00000000000000000 ) ) ;
#81 = CARTESIAN_POINT ( 'NONE',  ( 1.363630865077310809E-15, -4.782973219867733721E-17, 0.3905594023679175297 ) ) ;
#82 = PLANE ( 'NONE',  #46 ) ;
#83 = FACE_OUTER_BOUND ( 'NONE', #108, .T. ) ;
#84 = AXIS2_PLACEMENT_3D ( 'NONE', #100, #159, #179 ) ;
#85 = PLANE ( 'NONE',  #84 ) ;
#86 = ADVANCED_BREP_SHAPE_REPRESENTATION ( '459', ( #53, #55, #6 ), #214 ) ;
#87 = PERSON_AND_ORGANIZATION_ROLE ( 'classification_officer' ) ;
#88 = EDGE_CURVE ( 'NONE', #162, #162, #28, .T. ) ;
#89 =( LENGTH_UNIT ( ) NAMED_UNIT ( * ) SI_UNIT ( .MILLI., .METRE. ) );
#90 = AXIS2_PLACEMENT_3D ( 'NONE', #74, #205, #135 ) ;
#91 = DATE_TIME_ROLE ( 'classification_date' ) ;
#92 = EDGE_LOOP ( 'NONE', ( #170 ) ) ;
#93 = EDGE_LOOP ( 'NONE', ( #37 ) ) ;
#94 = EDGE_CURVE ( 'NONE', #198, #198, #129, .T. ) ;
#95 = LOCAL_TIME ( 15, 48, 13.00000000000000000, #153 ) ;
#96 = CARTESIAN_POINT ( 'NONE',  ( 1.363630865077310809E-15, -4.782973219867733721E-17, 0.3905594023679175297 ) ) ;
#97 = CARTESIAN_POINT ( 'NONE',  ( 3.491481338843133355E-14, 4.874219293651025594E-33, 10.00000000000000000 ) ) ;
#98 = APPROVAL ( #8, 'UNSPECIFIED' ) ;
#99 = DIRECTION ( 'NONE',  ( 3.491481338843133355E-15, -1.224646799147353207E-16, 1.000000000000000000 ) ) ;
#100 = CARTESIAN_POINT ( 'NONE',  ( 1.047444401652940007E-13, 4.124339402320045473E-33, 30.00000000000000000 ) ) ;
#101 = CARTESIAN_POINT ( 'NONE',  ( 0.0000000000000000000, 0.0000000000000000000, 0.0000000000000000000 ) ) ;
#102 = APPLICATION_PROTOCOL_DEFINITION ( 'international standard', 'config_control_design', 1994, #62 ) ;
#103 = PERSON_AND_ORGANIZATION ( #208, #65 ) ;
#104 = VERTEX_POINT ( 'NONE', #128 ) ;
#105 = APPROVAL_STATUS ( 'not_yet_approved' ) ;
#106 = CLOSED_SHELL ( 'NONE', ( #216, #11, #9, #124, #189 ) ) ;
#107 = ADVANCED_FACE ( 'NONE', ( #191 ), #82, .T. ) ;
#108 = EDGE_LOOP ( 'NONE', ( #139 ) ) ;
#109 = VERTEX_POINT ( 'NONE', #141 ) ;
#110 = CARTESIAN_POINT ( 'NONE',  ( 3.551955569568681549E-14, -1.245858303921850986E-15, 10.17320508075688501 ) ) ;
#111 = DIRECTION ( 'NONE',  ( -4.275831445896958607E-31, -1.000000000000000000, -1.224646799147353207E-16 ) ) ;
#112 = CARTESIAN_POINT ( 'NONE',  ( 3.551955569568681549E-14, -1.245858303921850986E-15, 10.17320508075688501 ) ) ;
#113 = DIRECTION ( 'NONE',  ( -3.491481338843133355E-15, 1.224646799147353207E-16, -1.000000000000000000 ) ) ;
#114 = AXIS2_PLACEMENT_3D ( 'NONE', #174, #7, #3 ) ;
#115 = PERSON_AND_ORGANIZATION ( #208, #65 ) ;
#116 = PERSON_AND_ORGANIZATION_ROLE ( 'design_supplier' ) ;
#117 = CC_DESIGN_PERSON_AND_ORGANIZATION_ASSIGNMENT ( #52, #116, ( #69 ) ) ;
#118 = EDGE_CURVE ( 'NONE', #104, #104, #181, .T. ) ;
#119 = ORIENTED_EDGE ( 'NONE', *, *, #94, .T. ) ;
#120 = ORIENTED_EDGE ( 'NONE', *, *, #4, .T. ) ;
#121 = DIRECTION ( 'NONE',  ( 0.0000000000000000000, 1.000000000000000000, 0.0000000000000000000 ) ) ;
#122 = DIRECTION ( 'NONE',  ( 4.275831445896958607E-31, 1.000000000000000000, 1.224646799147353207E-16 ) ) ;
#123 = CONICAL_SURFACE ( 'NONE', #197, 0.5499999999999990452, 0.7853981633974602694 ) ;
#124 = ADVANCED_FACE ( 'NONE', ( #66, #44 ), #123, .T. ) ;
#125 = CARTESIAN_POINT ( 'NONE',  ( 0.0000000000000000000, 0.0000000000000000000, 0.0000000000000000000 ) ) ;
#126 = CYLINDRICAL_SURFACE ( 'NONE', #2, 0.7499999999999978906 ) ;
#127 = FACE_BOUND ( 'NONE', #136, .T. ) ;
#128 = CARTESIAN_POINT ( 'NONE',  ( 3.551955569568681549E-14, 0.7499999999999954481, 10.17320508075688501 ) ) ;
#129 = CIRCLE ( 'NONE', #172, 0.6499999999999984679 ) ;
#130 = CC_DESIGN_PERSON_AND_ORGANIZATION_ASSIGNMENT ( #115, #213, ( #152 ) ) ;
#131 = APPROVAL_ROLE ( '' ) ;
#132 = UNCERTAINTY_MEASURE_WITH_UNIT (LENGTH_MEASURE( 1.000000000000000082E-05 ), #89, 'distance_accuracy_value', 'NONE');
#133 = DATE_AND_TIME ( #199, #95 ) ;
#134 = APPROVAL_PERSON_ORGANIZATION ( #71, #98, #131 ) ;
#135 = DIRECTION ( 'NONE',  ( 0.0000000000000000000, 1.000000000000000000, 0.0000000000000000000 ) ) ;
#136 = EDGE_LOOP ( 'NONE', ( #155 ) ) ;
#137 = COORDINATED_UNIVERSAL_TIME_OFFSET ( 1, 0, .AHEAD. ) ;
#138 = EDGE_LOOP ( 'NONE', ( #120 ) ) ;
#139 = ORIENTED_EDGE ( 'NONE', *, *, #118, .T. ) ;
#140 = CIRCLE ( 'NONE', #164, 0.6500000000000006883 ) ;
#141 = CARTESIAN_POINT ( 'NONE',  ( 3.491481338843133355E-14, 0.6499999999999995781, 10.00000000000000000 ) ) ;
#142 = FACE_OUTER_BOUND ( 'NONE', #138, .T. ) ;
#143 = EDGE_CURVE ( 'NONE', #47, #47, #140, .T. ) ;
#144 = DIRECTION ( 'NONE',  ( -3.491481338843133355E-15, 1.224646799147353207E-16, -1.000000000000000000 ) ) ;
#145 = CIRCLE ( 'NONE', #206, 0.5499999999999990452 ) ;
#146 = DIRECTION ( 'NONE',  ( 3.491481338843133355E-15, -1.224646799147353207E-16, 1.000000000000000000 ) ) ;
#147 = FACE_OUTER_BOUND ( 'NONE', #222, .T. ) ;
#148 =( NAMED_UNIT ( * ) SI_UNIT ( $, .STERADIAN. ) SOLID_ANGLE_UNIT ( ) );
#149 = CARTESIAN_POINT ( 'NONE',  ( 1.363630865077311007E-15, 0.6499999999999984679, 0.3905594023679175852 ) ) ;
#150 = LOCAL_TIME ( 15, 48, 13.00000000000000000, #137 ) ;
#151 = PERSON_AND_ORGANIZATION ( #208, #65 ) ;
#152 = PRODUCT_DEFINITION ( 'UNKNOWN', '', #69, #50 ) ;
#153 = COORDINATED_UNIVERSAL_TIME_OFFSET ( 1, 0, .AHEAD. ) ;
#154 = EDGE_LOOP ( 'NONE', ( #20 ) ) ;
#155 = ORIENTED_EDGE ( 'NONE', *, *, #4, .F. ) ;
#156 = EDGE_LOOP ( 'NONE', ( #158 ) ) ;
#157 = CC_DESIGN_DATE_AND_TIME_ASSIGNMENT ( #77, #91, ( #23 ) ) ;
#158 = ORIENTED_EDGE ( 'NONE', *, *, #143, .T. ) ;
#159 = DIRECTION ( 'NONE',  ( -3.491481338843133355E-15, 1.224646799147353207E-16, -1.000000000000000000 ) ) ;
#160 = LOCAL_TIME ( 15, 48, 13.00000000000000000, #12 ) ;
#161 = CARTESIAN_POINT ( 'NONE',  ( 1.047444401652940007E-13, -3.673940397442059178E-15, 30.00000000000000000 ) ) ;
#162 = VERTEX_POINT ( 'NONE', #70 ) ;
#163 = FACE_OUTER_BOUND ( 'NONE', #156, .T. ) ;
#164 = AXIS2_PLACEMENT_3D ( 'NONE', #180, #1, #121 ) ;
#165 = DIRECTION ( 'NONE',  ( 0.0000000000000000000, -1.000000000000000000, 0.0000000000000000000 ) ) ;
#166 = MECHANICAL_CONTEXT ( 'NONE', #19, 'mechanical' ) ;
#167 = CALENDAR_DATE ( 2021, 7, 10 ) ;
#168 = CARTESIAN_POINT ( 'NONE',  ( 3.491481338843133355E-14, 0.6499999999999995781, 10.00000000000000000 ) ) ;
#169 = SHAPE_DEFINITION_REPRESENTATION ( #75, #86 ) ;
#170 = ORIENTED_EDGE ( 'NONE', *, *, #17, .F. ) ;
#171 = APPROVAL_PERSON_ORGANIZATION ( #151, #173, #215 ) ;
#172 = AXIS2_PLACEMENT_3D ( 'NONE', #96, #193, #212 ) ;
#173 = APPROVAL ( #10, 'UNSPECIFIED' ) ;
#174 = CARTESIAN_POINT ( 'NONE',  ( 1.040461438975253866E-13, -3.649447461459112464E-15, 29.80000000000000426 ) ) ;
#175 = FACE_OUTER_BOUND ( 'NONE', #78, .T. ) ;
#176 = CC_DESIGN_APPROVAL ( #13, ( #23 ) ) ;
#177 = DIRECTION ( 'NONE',  ( -2.962969145211138852E-31, -1.000000000000000000, -8.340016711426976242E-17 ) ) ;
#178 = PRODUCT_RELATED_PRODUCT_CATEGORY ( 'detail', '', ( #40 ) ) ;
#179 = DIRECTION ( 'NONE',  ( 4.275831445896958607E-31, 1.000000000000000000, 1.224646799147353207E-16 ) ) ;
#180 = CARTESIAN_POINT ( 'NONE',  ( 3.491481338843133355E-14, -1.224646799147353256E-15, 10.00000000000000000 ) ) ;
#181 = CIRCLE ( 'NONE', #187, 0.7499999999999966693 ) ;
#182 = PERSON_AND_ORGANIZATION_ROLE ( 'design_owner' ) ;
#183 = APPLICATION_PROTOCOL_DEFINITION ( 'international standard', 'config_control_design', 1994, #19 ) ;
#184 = DATE_TIME_ROLE ( 'creation_date' ) ;
#185 = CC_DESIGN_APPROVAL ( #173, ( #152 ) ) ;
#186 = SECURITY_CLASSIFICATION_LEVEL ( 'unclassified' ) ;
#187 = AXIS2_PLACEMENT_3D ( 'NONE', #112, #144, #5 ) ;
#188 = APPROVAL_ROLE ( '' ) ;
#189 = ADVANCED_FACE ( 'NONE', ( #27 ), #85, .F. ) ;
#190 = DIRECTION ( 'NONE',  ( 3.491481338843133355E-15, -1.224646799147353207E-16, 1.000000000000000000 ) ) ;
#191 = FACE_OUTER_BOUND ( 'NONE', #59, .T. ) ;
#192 = CONICAL_SURFACE ( 'NONE', #18, 0.7499999999999966693, 0.5235987755982887126 ) ;
#193 = DIRECTION ( 'NONE',  ( -3.491481338843133355E-15, 1.224646799147353207E-16, -1.000000000000000000 ) ) ;
#194 = CYLINDRICAL_SURFACE ( 'NONE', #51, 0.6499999999999995781 ) ;
#195 = CALENDAR_DATE ( 2021, 7, 10 ) ;
#196 = ADVANCED_FACE ( 'NONE', ( #147 ), #79, .T. ) ;
#197 = AXIS2_PLACEMENT_3D ( 'NONE', #161, #113, #24 ) ;
#198 = VERTEX_POINT ( 'NONE', #149 ) ;
#199 = CALENDAR_DATE ( 2021, 7, 10 ) ;
#200 = AXIS2_PLACEMENT_3D ( 'NONE', #209, #99, #111 ) ;
#201 = PERSON_AND_ORGANIZATION_ROLE ( 'creator' ) ;
#202 = EDGE_LOOP ( 'NONE', ( #16 ) ) ;
#203 = LOCAL_TIME ( 15, 48, 13.00000000000000000, #73 ) ;
#204 = CALENDAR_DATE ( 2021, 7, 10 ) ;
#205 = DIRECTION ( 'NONE',  ( -3.491481338843133355E-15, 1.224646799147353207E-16, -1.000000000000000000 ) ) ;
#206 = AXIS2_PLACEMENT_3D ( 'NONE', #80, #67, #210 ) ;
#207 = CARTESIAN_POINT ( 'NONE',  ( 1.047444401652940007E-13, 0.5499999999999953815, 30.00000000000000000 ) ) ;
#208 = PERSON ( 'UNSPECIFIED', 'UNSPECIFIED', 'UNSPECIFIED', ('UNSPECIFIED'), ('UNSPECIFIED'), ('UNSPECIFIED') ) ;
#209 = CARTESIAN_POINT ( 'NONE',  ( 3.491481338843133355E-14, 4.874219293651025594E-33, 10.00000000000000000 ) ) ;
#210 = DIRECTION ( 'NONE',  ( 0.0000000000000000000, 1.000000000000000000, 0.0000000000000000000 ) ) ;
#211 = CC_DESIGN_PERSON_AND_ORGANIZATION_ASSIGNMENT ( #103, #201, ( #69 ) ) ;
#212 = DIRECTION ( 'NONE',  ( 2.962969145211138852E-31, 1.000000000000000000, 8.340016711426976242E-17 ) ) ;
#213 = PERSON_AND_ORGANIZATION_ROLE ( 'creator' ) ;
#214 =( GEOMETRIC_REPRESENTATION_CONTEXT ( 3 ) GLOBAL_UNCERTAINTY_ASSIGNED_CONTEXT ( ( #132 ) ) GLOBAL_UNIT_ASSIGNED_CONTEXT ( ( #89, #220, #148 ) ) REPRESENTATION_CONTEXT ( 'NONE', 'WORKASPACE' ) );
#215 = APPROVAL_ROLE ( '' ) ;
#216 = ADVANCED_FACE ( 'NONE', ( #142 ), #21, .F. ) ;
#217 = DATE_AND_TIME ( #68, #160 ) ;
#218 = CC_DESIGN_PERSON_AND_ORGANIZATION_ASSIGNMENT ( #32, #87, ( #23 ) ) ;
#219 = CIRCLE ( 'NONE', #90, 0.6500000000000006883 ) ;
#220 =( NAMED_UNIT ( * ) PLANE_ANGLE_UNIT ( ) SI_UNIT ( $, .RADIAN. ) );
#221 = EDGE_LOOP ( 'NONE', ( #223 ) ) ;
#222 = EDGE_LOOP ( 'NONE', ( #119 ) ) ;
#223 = ORIENTED_EDGE ( 'NONE', *, *, #88, .F. ) ;
ENDSEC;
END-ISO-10303-21;
