ISO-10303-21;
HEADER;
FILE_DESCRIPTION (( 'STEP AP203' ),
    '1' );
FILE_NAME ('45814.step',
    '2021-11-25T13:42:34',
    ( '' ),
    ( '' ),
    'SwSTEP 2.0',
    'SolidWorks 2019',
    '' );
FILE_SCHEMA (( 'CONFIG_CONTROL_DESIGN' ));
ENDSEC;

DATA;
#1 = FACE_OUTER_BOUND ( 'NONE', #84, .T. ) ;
#2 = PRODUCT_DEFINITION ( 'UNKNOWN', '', #118, #8 ) ;
#3 = EDGE_LOOP ( 'NONE', ( #47 ) ) ;
#4 = DIRECTION ( 'NONE',  ( -3.491481338843133355E-15, 1.224646799147353207E-16, -1.000000000000000000 ) ) ;
#5 = PERSON_AND_ORGANIZATION_ROLE ( 'classification_officer' ) ;
#6 = FACE_OUTER_BOUND ( 'NONE', #116, .T. ) ;
#7 = AXIS2_PLACEMENT_3D ( 'NONE', #51, #121, #88 ) ;
#8 = DESIGN_CONTEXT ( 'detailed design', #22, 'design' ) ;
#9 = CARTESIAN_POINT ( 'NONE',  ( 1.149010383785446595E-14, -4.030185907154691784E-16, 3.290896534380904015 ) ) ;
#10 = PERSON_AND_ORGANIZATION_ROLE ( 'creator' ) ;
#11 = DIRECTION ( 'NONE',  ( 4.275831445896958607E-31, 1.000000000000000000, 1.224646799147353207E-16 ) ) ;
#12 = PLANE ( 'NONE',  #158 ) ;
#13 = MANIFOLD_SOLID_BREP ( 'Corps-Déplacer/Copier1[2]', #29 ) ;
#14 = CC_DESIGN_APPROVAL ( #149, ( #118 ) ) ;
#15 = CARTESIAN_POINT ( 'NONE',  ( 1.745740669421566678E-13, -6.123233995736766085E-15, 50.00000000000000000 ) ) ;
#16 = PERSON_AND_ORGANIZATION ( #50, #177 ) ;
#17 = COORDINATED_UNIVERSAL_TIME_OFFSET ( 1, 0, .AHEAD. ) ;
#18 = DIRECTION ( 'NONE',  ( -3.491481338843133355E-15, 1.224646799147353207E-16, -1.000000000000000000 ) ) ;
#19 = APPROVAL_STATUS ( 'not_yet_approved' ) ;
#20 = DIRECTION ( 'NONE',  ( 3.491481338843133355E-15, -1.224646799147353207E-16, 1.000000000000000000 ) ) ;
#21 = EDGE_LOOP ( 'NONE', ( #110 ) ) ;
#22 = APPLICATION_CONTEXT ( 'configuration controlled 3d designs of mechanical parts and assemblies' ) ;
#23 = APPLICATION_PROTOCOL_DEFINITION ( 'international standard', 'config_control_design', 1994, #148 ) ;
#24 = CONICAL_SURFACE ( 'NONE', #54, 1.999999999999994449, 0.5235987755982925984 ) ;
#25 = PERSON_AND_ORGANIZATION ( #50, #177 ) ;
#26 = FACE_OUTER_BOUND ( 'NONE', #41, .T. ) ;
#27 = DIRECTION ( 'NONE',  ( -4.275831445896958607E-31, -1.000000000000000000, -1.224646799147353207E-16 ) ) ;
#28 = PRODUCT ( '45814', '45814', '', ( #143 ) ) ;
#29 = CLOSED_SHELL ( 'NONE', ( #114, #150, #164 ) ) ;
#30 = ORIENTED_EDGE ( 'NONE', *, *, #107, .T. ) ;
#31 = AXIS2_PLACEMENT_3D ( 'NONE', #109, #173, #97 ) ;
#32 = LOCAL_TIME ( 14, 42, 34.00000000000000000, #195 ) ;
#33 = AXIS2_PLACEMENT_3D ( 'NONE', #15, #58, #133 ) ;
#34 = LOCAL_TIME ( 14, 42, 34.00000000000000000, #45 ) ;
#35 = DIRECTION ( 'NONE',  ( 3.491481338843133355E-15, -1.224646799147353207E-16, 1.000000000000000000 ) ) ;
#36 = ADVANCED_FACE ( 'NONE', ( #90, #137 ), #59, .T. ) ;
#37 = APPROVAL_ROLE ( '' ) ;
#38 = VERTEX_POINT ( 'NONE', #128 ) ;
#39 = FACE_OUTER_BOUND ( 'NONE', #79, .T. ) ;
#40 = DATE_AND_TIME ( #126, #32 ) ;
#41 = EDGE_LOOP ( 'NONE', ( #83 ) ) ;
#42 = PERSON_AND_ORGANIZATION_ROLE ( 'design_owner' ) ;
#43 = AXIS2_PLACEMENT_3D ( 'NONE', #179, #20, #27 ) ;
#44 = DATE_AND_TIME ( #161, #154 ) ;
#45 = COORDINATED_UNIVERSAL_TIME_OFFSET ( 1, 0, .AHEAD. ) ;
#46 = VERTEX_POINT ( 'NONE', #106 ) ;
#47 = ORIENTED_EDGE ( 'NONE', *, *, #107, .F. ) ;
#48 =( GEOMETRIC_REPRESENTATION_CONTEXT ( 3 ) GLOBAL_UNCERTAINTY_ASSIGNED_CONTEXT ( ( #56 ) ) GLOBAL_UNIT_ASSIGNED_CONTEXT ( ( #184, #113, #76 ) ) REPRESENTATION_CONTEXT ( 'NONE', 'WORKASPACE' ) );
#49 = ORIENTED_EDGE ( 'NONE', *, *, #86, .F. ) ;
#50 = PERSON ( 'UNSPECIFIED', 'UNSPECIFIED', 'UNSPECIFIED', ('UNSPECIFIED'), ('UNSPECIFIED'), ('UNSPECIFIED') ) ;
#51 = CARTESIAN_POINT ( 'NONE',  ( 1.735266225405037214E-13, -6.086494591762344436E-15, 49.69999999999999574 ) ) ;
#52 = APPROVAL_DATE_TIME ( #176, #149 ) ;
#53 = CARTESIAN_POINT ( 'NONE',  ( 1.745740669421566678E-13, -6.123233995736766085E-15, 50.00000000000000000 ) ) ;
#54 = AXIS2_PLACEMENT_3D ( 'NONE', #201, #198, #174 ) ;
#55 = FACE_OUTER_BOUND ( 'NONE', #60, .T. ) ;
#56 = UNCERTAINTY_MEASURE_WITH_UNIT (LENGTH_MEASURE( 1.000000000000000082E-05 ), #184, 'distance_accuracy_value', 'NONE');
#57 = DIRECTION ( 'NONE',  ( -3.491481338843133355E-15, 1.224646799147353207E-16, -1.000000000000000000 ) ) ;
#58 = DIRECTION ( 'NONE',  ( -3.491481338843133355E-15, 1.224646799147353207E-16, -1.000000000000000000 ) ) ;
#59 = CONICAL_SURFACE ( 'NONE', #33, 1.700000000000001510, 0.7853981633974338461 ) ;
#60 = EDGE_LOOP ( 'NONE', ( #124 ) ) ;
#61 = CARTESIAN_POINT ( 'NONE',  ( 1.149010383785446595E-14, -7.135994344001607211E-16, 3.290896534380904015 ) ) ;
#62 = DIRECTION ( 'NONE',  ( -3.491481338843133355E-15, 1.224646799147353207E-16, -1.000000000000000000 ) ) ;
#63 = CC_DESIGN_APPROVAL ( #159, ( #165 ) ) ;
#64 = DIRECTION ( 'NONE',  ( 4.275831445896958607E-31, 1.000000000000000000, 1.224646799147353207E-16 ) ) ;
#65 = CC_DESIGN_DATE_AND_TIME_ASSIGNMENT ( #170, #134, ( #2 ) ) ;
#66 = CC_DESIGN_SECURITY_CLASSIFICATION ( #165, ( #118 ) ) ;
#67 = PERSON_AND_ORGANIZATION ( #50, #177 ) ;
#68 = EDGE_LOOP ( 'NONE', ( #30 ) ) ;
#69 = PLANE ( 'NONE',  #136 ) ;
#70 = CIRCLE ( 'NONE', #117, 1.700000000000001510 ) ;
#71 = AXIS2_PLACEMENT_3D ( 'NONE', #192, #102, #122 ) ;
#72 = CC_DESIGN_PERSON_AND_ORGANIZATION_ASSIGNMENT ( #16, #92, ( #118 ) ) ;
#73 = EDGE_LOOP ( 'NONE', ( #49 ) ) ;
#74 = DIRECTION ( 'NONE',  ( 0.0000000000000000000, 1.000000000000000000, 0.0000000000000000000 ) ) ;
#75 = CALENDAR_DATE ( 2021, 25, 11 ) ;
#76 =( NAMED_UNIT ( * ) SI_UNIT ( $, .STERADIAN. ) SOLID_ANGLE_UNIT ( ) );
#77 = VERTEX_POINT ( 'NONE', #115 ) ;
#78 = PRODUCT_RELATED_PRODUCT_CATEGORY ( 'detail', '', ( #28 ) ) ;
#79 = EDGE_LOOP ( 'NONE', ( #166 ) ) ;
#80 = EDGE_CURVE ( 'NONE', #38, #38, #147, .T. ) ;
#81 = DIRECTION ( 'NONE',  ( 3.491481338843133355E-15, -1.224646799147353207E-16, 1.000000000000000000 ) ) ;
#82 = APPROVAL_PERSON_ORGANIZATION ( #146, #149, #123 ) ;
#83 = ORIENTED_EDGE ( 'NONE', *, *, #80, .F. ) ;
#84 = EDGE_LOOP ( 'NONE', ( #182 ) ) ;
#85 = AXIS2_PLACEMENT_3D ( 'NONE', #169, #199, #64 ) ;
#86 = EDGE_CURVE ( 'NONE', #183, #183, #70, .T. ) ;
#87 = APPROVAL_PERSON_ORGANIZATION ( #108, #135, #37 ) ;
#88 = DIRECTION ( 'NONE',  ( 0.0000000000000000000, 1.000000000000000000, 0.0000000000000000000 ) ) ;
#89 = FACE_OUTER_BOUND ( 'NONE', #73, .T. ) ;
#90 = FACE_OUTER_BOUND ( 'NONE', #3, .T. ) ;
#91 = CC_DESIGN_APPROVAL ( #135, ( #2 ) ) ;
#92 = PERSON_AND_ORGANIZATION_ROLE ( 'design_supplier' ) ;
#93 = PLANE ( 'NONE',  #43 ) ;
#94 = CC_DESIGN_DATE_AND_TIME_ASSIGNMENT ( #40, #130, ( #165 ) ) ;
#95 = PLANE ( 'NONE',  #100 ) ;
#96 = PERSON_AND_ORGANIZATION ( #50, #177 ) ;
#97 = DIRECTION ( 'NONE',  ( 1.000000000000000000, 0.0000000000000000000, 0.0000000000000000000 ) ) ;
#98 = DATE_AND_TIME ( #163, #196 ) ;
#99 = CLOSED_SHELL ( 'NONE', ( #140, #101, #36, #119 ) ) ;
#100 = AXIS2_PLACEMENT_3D ( 'NONE', #141, #18, #11 ) ;
#101 = ADVANCED_FACE ( 'NONE', ( #55, #189 ), #194, .T. ) ;
#102 = DIRECTION ( 'NONE',  ( -3.491481338843133355E-15, 1.224646799147353207E-16, -1.000000000000000000 ) ) ;
#103 = APPROVAL_STATUS ( 'not_yet_approved' ) ;
#104 = DIRECTION ( 'NONE',  ( -4.275831445896958607E-31, -1.000000000000000000, -1.224646799147353207E-16 ) ) ;
#105 = COORDINATED_UNIVERSAL_TIME_OFFSET ( 1, 0, .AHEAD. ) ;
#106 = CARTESIAN_POINT ( 'NONE',  ( 1.735266225405037214E-13, 1.999999999999995337, 49.69999999999999574 ) ) ;
#107 = EDGE_CURVE ( 'NONE', #46, #46, #112, .T. ) ;
#108 = PERSON_AND_ORGANIZATION ( #50, #177 ) ;
#109 = CARTESIAN_POINT ( 'NONE',  ( 0.0000000000000000000, 0.0000000000000000000, 0.0000000000000000000 ) ) ;
#110 = ORIENTED_EDGE ( 'NONE', *, *, #86, .T. ) ;
#111 = APPROVAL_DATE_TIME ( #98, #135 ) ;
#112 = CIRCLE ( 'NONE', #7, 2.000000000000001332 ) ;
#113 =( NAMED_UNIT ( * ) PLANE_ANGLE_UNIT ( ) SI_UNIT ( $, .RADIAN. ) );
#114 = ADVANCED_FACE ( 'NONE', ( #1 ), #69, .F. ) ;
#115 = CARTESIAN_POINT ( 'NONE',  ( 1.149010383785446753E-14, 1.999999999999994005, 3.290896534380904459 ) ) ;
#116 = EDGE_LOOP ( 'NONE', ( #172 ) ) ;
#117 = AXIS2_PLACEMENT_3D ( 'NONE', #53, #57, #74 ) ;
#118 = PRODUCT_DEFINITION_FORMATION_WITH_SPECIFIED_SOURCE ( 'ANY', '', #28, .NOT_KNOWN. ) ;
#119 = ADVANCED_FACE ( 'NONE', ( #89 ), #95, .F. ) ;
#120 = COORDINATED_UNIVERSAL_TIME_OFFSET ( 1, 0, .AHEAD. ) ;
#121 = DIRECTION ( 'NONE',  ( -3.491481338843133355E-15, 1.224646799147353207E-16, -1.000000000000000000 ) ) ;
#122 = DIRECTION ( 'NONE',  ( 4.275831445896957731E-31, 1.000000000000000000, 1.224646799147353454E-16 ) ) ;
#123 = APPROVAL_ROLE ( '' ) ;
#124 = ORIENTED_EDGE ( 'NONE', *, *, #186, .F. ) ;
#125 = DIRECTION ( 'NONE',  ( 7.703719777548964432E-31, 1.000000000000000000, 2.168404344971014784E-16 ) ) ;
#126 = CALENDAR_DATE ( 2021, 25, 11 ) ;
#127 = CIRCLE ( 'NONE', #167, 1.999999999999994449 ) ;
#128 = CARTESIAN_POINT ( 'NONE',  ( 1.149010383785446753E-14, 1.999999999999994005, 3.290896534380904459 ) ) ;
#129 = CC_DESIGN_PERSON_AND_ORGANIZATION_ASSIGNMENT ( #67, #180, ( #118 ) ) ;
#130 = DATE_TIME_ROLE ( 'classification_date' ) ;
#131 = APPROVAL_PERSON_ORGANIZATION ( #187, #159, #168 ) ;
#132 = APPROVAL_STATUS ( 'not_yet_approved' ) ;
#133 = DIRECTION ( 'NONE',  ( 0.0000000000000000000, 1.000000000000000000, 0.0000000000000000000 ) ) ;
#134 = DATE_TIME_ROLE ( 'creation_date' ) ;
#135 = APPROVAL ( #132, 'UNSPECIFIED' ) ;
#136 = AXIS2_PLACEMENT_3D ( 'NONE', #178, #35, #104 ) ;
#137 = FACE_BOUND ( 'NONE', #21, .T. ) ;
#138 = ADVANCED_BREP_SHAPE_REPRESENTATION ( '45814', ( #160, #13, #31 ), #48 ) ;
#139 = SECURITY_CLASSIFICATION_LEVEL ( 'unclassified' ) ;
#140 = ADVANCED_FACE ( 'NONE', ( #6 ), #93, .F. ) ;
#141 = CARTESIAN_POINT ( 'NONE',  ( 1.745740669421566678E-13, 1.274795815262571030E-32, 50.00000000000000000 ) ) ;
#142 = CARTESIAN_POINT ( 'NONE',  ( 1.745740669421566678E-13, 1.699999999999995293, 50.00000000000000000 ) ) ;
#143 = MECHANICAL_CONTEXT ( 'NONE', #148, 'mechanical' ) ;
#144 = SHAPE_DEFINITION_REPRESENTATION ( #162, #138 ) ;
#145 = ORIENTED_EDGE ( 'NONE', *, *, #188, .F. ) ;
#146 = PERSON_AND_ORGANIZATION ( #50, #177 ) ;
#147 = CIRCLE ( 'NONE', #175, 1.999999999999994449 ) ;
#148 = APPLICATION_CONTEXT ( 'configuration controlled 3d designs of mechanical parts and assemblies' ) ;
#149 = APPROVAL ( #19, 'UNSPECIFIED' ) ;
#150 = ADVANCED_FACE ( 'NONE', ( #171, #39 ), #24, .T. ) ;
#151 = CARTESIAN_POINT ( 'NONE',  ( 1.149010383785446595E-14, -4.030185907154691784E-16, 3.290896534380904015 ) ) ;
#152 = PERSON_AND_ORGANIZATION ( #50, #177 ) ;
#153 = DIRECTION ( 'NONE',  ( -4.275831445896958607E-31, -1.000000000000000000, -1.224646799147353207E-16 ) ) ;
#154 = LOCAL_TIME ( 14, 42, 34.00000000000000000, #17 ) ;
#155 = VERTEX_POINT ( 'NONE', #200 ) ;
#156 = EDGE_LOOP ( 'NONE', ( #145 ) ) ;
#157 = CC_DESIGN_PERSON_AND_ORGANIZATION_ASSIGNMENT ( #96, #42, ( #28 ) ) ;
#158 = AXIS2_PLACEMENT_3D ( 'NONE', #61, #81, #153 ) ;
#159 = APPROVAL ( #103, 'UNSPECIFIED' ) ;
#160 = MANIFOLD_SOLID_BREP ( 'Corps-Déplacer/Copier1[1]', #99 ) ;
#161 = CALENDAR_DATE ( 2021, 25, 11 ) ;
#162 = PRODUCT_DEFINITION_SHAPE ( 'NONE', 'NONE',  #2 ) ;
#163 = CALENDAR_DATE ( 2021, 25, 11 ) ;
#164 = ADVANCED_FACE ( 'NONE', ( #26 ), #12, .T. ) ;
#165 = SECURITY_CLASSIFICATION ( '', '', #139 ) ;
#166 = ORIENTED_EDGE ( 'NONE', *, *, #80, .T. ) ;
#167 = AXIS2_PLACEMENT_3D ( 'NONE', #9, #62, #125 ) ;
#168 = APPROVAL_ROLE ( '' ) ;
#169 = CARTESIAN_POINT ( 'NONE',  ( -1.909911662918024263E-32, 6.699068325600016069E-34, -5.470204413439179279E-18 ) ) ;
#170 = DATE_AND_TIME ( #75, #34 ) ;
#171 = FACE_BOUND ( 'NONE', #156, .T. ) ;
#172 = ORIENTED_EDGE ( 'NONE', *, *, #186, .T. ) ;
#173 = DIRECTION ( 'NONE',  ( 0.0000000000000000000, 0.0000000000000000000, 1.000000000000000000 ) ) ;
#174 = DIRECTION ( 'NONE',  ( -7.703719777548964432E-31, -1.000000000000000000, -2.168404344971014784E-16 ) ) ;
#175 = AXIS2_PLACEMENT_3D ( 'NONE', #151, #4, #193 ) ;
#176 = DATE_AND_TIME ( #190, #191 ) ;
#177 = ORGANIZATION ( 'UNSPECIFIED', 'UNSPECIFIED', '' ) ;
#178 = CARTESIAN_POINT ( 'NONE',  ( -9.549558314590121315E-33, 3.349534162800008034E-34, -2.735102206719589640E-18 ) ) ;
#179 = CARTESIAN_POINT ( 'NONE',  ( 1.149010383785446595E-14, -7.135994344001607211E-16, 3.290896534380904015 ) ) ;
#180 = PERSON_AND_ORGANIZATION_ROLE ( 'creator' ) ;
#181 = APPLICATION_PROTOCOL_DEFINITION ( 'international standard', 'config_control_design', 1994, #22 ) ;
#182 = ORIENTED_EDGE ( 'NONE', *, *, #188, .T. ) ;
#183 = VERTEX_POINT ( 'NONE', #142 ) ;
#184 =( LENGTH_UNIT ( ) NAMED_UNIT ( * ) SI_UNIT ( .MILLI., .METRE. ) );
#185 = APPROVAL_DATE_TIME ( #44, #159 ) ;
#186 = EDGE_CURVE ( 'NONE', #77, #77, #127, .T. ) ;
#187 = PERSON_AND_ORGANIZATION ( #50, #177 ) ;
#188 = EDGE_CURVE ( 'NONE', #155, #155, #202, .T. ) ;
#189 = FACE_OUTER_BOUND ( 'NONE', #68, .T. ) ;
#190 = CALENDAR_DATE ( 2021, 25, 11 ) ;
#191 = LOCAL_TIME ( 14, 42, 34.00000000000000000, #105 ) ;
#192 = CARTESIAN_POINT ( 'NONE',  ( 0.0000000000000000000, 0.0000000000000000000, 0.0000000000000000000 ) ) ;
#193 = DIRECTION ( 'NONE',  ( 7.703719777548964432E-31, 1.000000000000000000, 2.168404344971014784E-16 ) ) ;
#194 = CYLINDRICAL_SURFACE ( 'NONE', #71, 1.999999999999997780 ) ;
#195 = COORDINATED_UNIVERSAL_TIME_OFFSET ( 1, 0, .AHEAD. ) ;
#196 = LOCAL_TIME ( 14, 42, 34.00000000000000000, #120 ) ;
#197 = CC_DESIGN_PERSON_AND_ORGANIZATION_ASSIGNMENT ( #25, #10, ( #2 ) ) ;
#198 = DIRECTION ( 'NONE',  ( 3.491481338843133355E-15, -1.224646799147353207E-16, 1.000000000000000000 ) ) ;
#199 = DIRECTION ( 'NONE',  ( -3.491481338843133355E-15, 1.224646799147353207E-16, -1.000000000000000000 ) ) ;
#200 = CARTESIAN_POINT ( 'NONE',  ( 2.365919782978951969E-32, 0.1000000000000004080, 6.776263578034402713E-18 ) ) ;
#201 = CARTESIAN_POINT ( 'NONE',  ( 1.149010383785446595E-14, -4.030185907154691784E-16, 3.290896534380904015 ) ) ;
#202 = CIRCLE ( 'NONE', #85, 0.1000000000000004080 ) ;
#203 = CC_DESIGN_PERSON_AND_ORGANIZATION_ASSIGNMENT ( #152, #5, ( #165 ) ) ;
ENDSEC;
END-ISO-10303-21;
