ISO-10303-21;
HEADER;
FILE_DESCRIPTION (( 'STEP AP203' ),
    '1' );
FILE_NAME ('45813.step',
    '2021-11-25T13:42:33',
    ( '' ),
    ( '' ),
    'SwSTEP 2.0',
    'SolidWorks 2019',
    '' );
FILE_SCHEMA (( 'CONFIG_CONTROL_DESIGN' ));
ENDSEC;

DATA;
#1 = CLOSED_SHELL ( 'NONE', ( #134, #161, #44 ) ) ;
#2 = CARTESIAN_POINT ( 'NONE',  ( 1.745740669421566678E-13, 1.699999999999995293, 50.00000000000000000 ) ) ;
#3 = DIRECTION ( 'NONE',  ( -3.491481338843133355E-15, 1.224646799147353207E-16, -1.000000000000000000 ) ) ;
#4 = APPROVAL_ROLE ( '' ) ;
#5 = CARTESIAN_POINT ( 'NONE',  ( 1.179247499148221481E-14, 1.999999999999994005, 3.377499074759348741 ) ) ;
#6 = UNCERTAINTY_MEASURE_WITH_UNIT (LENGTH_MEASURE( 1.000000000000000082E-05 ), #193, 'distance_accuracy_value', 'NONE');
#7 = CC_DESIGN_DATE_AND_TIME_ASSIGNMENT ( #120, #50, ( #67 ) ) ;
#8 = PERSON_AND_ORGANIZATION ( #154, #162 ) ;
#9 = CLOSED_SHELL ( 'NONE', ( #14, #194, #118, #40 ) ) ;
#10 = MECHANICAL_CONTEXT ( 'NONE', #203, 'mechanical' ) ;
#11 = CARTESIAN_POINT ( 'NONE',  ( 1.745740669421566678E-13, -6.123233995736766085E-15, 50.00000000000000000 ) ) ;
#12 = PERSON_AND_ORGANIZATION_ROLE ( 'creator' ) ;
#13 = CARTESIAN_POINT ( 'NONE',  ( 1.745740669421566678E-13, -6.123233995736766085E-15, 50.00000000000000000 ) ) ;
#14 = ADVANCED_FACE ( 'NONE', ( #106 ), #91, .F. ) ;
#15 = CARTESIAN_POINT ( 'NONE',  ( 1.745740669421566678E-13, 1.274795815262571030E-32, 50.00000000000000000 ) ) ;
#16 = EDGE_LOOP ( 'NONE', ( #23 ) ) ;
#17 = VERTEX_POINT ( 'NONE', #2 ) ;
#18 = DIRECTION ( 'NONE',  ( 3.491481338843133355E-15, -1.224646799147353207E-16, 1.000000000000000000 ) ) ;
#19 = DESIGN_CONTEXT ( 'detailed design', #105, 'design' ) ;
#20 =( NAMED_UNIT ( * ) PLANE_ANGLE_UNIT ( ) SI_UNIT ( $, .RADIAN. ) );
#21 = CC_DESIGN_DATE_AND_TIME_ASSIGNMENT ( #99, #63, ( #25 ) ) ;
#22 = APPROVAL_DATE_TIME ( #53, #140 ) ;
#23 = ORIENTED_EDGE ( 'NONE', *, *, #152, .T. ) ;
#24 = PERSON_AND_ORGANIZATION ( #154, #162 ) ;
#25 = SECURITY_CLASSIFICATION ( '', '', #107 ) ;
#26 = LOCAL_TIME ( 14, 42, 33.00000000000000000, #49 ) ;
#27 = FACE_OUTER_BOUND ( 'NONE', #201, .T. ) ;
#28 = DIRECTION ( 'NONE',  ( 3.491481338843133355E-15, -1.224646799147353207E-16, 1.000000000000000000 ) ) ;
#29 = ORIENTED_EDGE ( 'NONE', *, *, #181, .T. ) ;
#30 = AXIS2_PLACEMENT_3D ( 'NONE', #150, #59, #109 ) ;
#31 = DIRECTION ( 'NONE',  ( -3.491481338843133355E-15, 1.224646799147353207E-16, -1.000000000000000000 ) ) ;
#32 = ADVANCED_BREP_SHAPE_REPRESENTATION ( '45813', ( #97, #95, #176 ), #155 ) ;
#33 = CYLINDRICAL_SURFACE ( 'NONE', #47, 1.999999999999997780 ) ;
#34 = COORDINATED_UNIVERSAL_TIME_OFFSET ( 1, 0, .AHEAD. ) ;
#35 = CIRCLE ( 'NONE', #141, 2.000000000000001332 ) ;
#36 = APPROVAL_STATUS ( 'not_yet_approved' ) ;
#37 = CARTESIAN_POINT ( 'NONE',  ( 2.672764710092195646E-48, 0.04999999999999996114, 0.0000000000000000000 ) ) ;
#38 = ORIENTED_EDGE ( 'NONE', *, *, #181, .F. ) ;
#39 = CARTESIAN_POINT ( 'NONE',  ( 1.735266225405037214E-13, 1.999999999999995337, 49.69999999999999574 ) ) ;
#40 = ADVANCED_FACE ( 'NONE', ( #108 ), #183, .F. ) ;
#41 = AXIS2_PLACEMENT_3D ( 'NONE', #11, #126, #92 ) ;
#42 = FACE_OUTER_BOUND ( 'NONE', #111, .T. ) ;
#43 = ORIENTED_EDGE ( 'NONE', *, *, #175, .T. ) ;
#44 = ADVANCED_FACE ( 'NONE', ( #202 ), #84, .T. ) ;
#45 = FACE_BOUND ( 'NONE', #197, .T. ) ;
#46 = CARTESIAN_POINT ( 'NONE',  ( 1.735266225405037214E-13, -6.086494591762344436E-15, 49.69999999999999574 ) ) ;
#47 = AXIS2_PLACEMENT_3D ( 'NONE', #138, #96, #159 ) ;
#48 = AXIS2_PLACEMENT_3D ( 'NONE', #60, #18, #187 ) ;
#49 = COORDINATED_UNIVERSAL_TIME_OFFSET ( 1, 0, .AHEAD. ) ;
#50 = DATE_TIME_ROLE ( 'creation_date' ) ;
#51 = APPLICATION_PROTOCOL_DEFINITION ( 'international standard', 'config_control_design', 1994, #105 ) ;
#52 = CARTESIAN_POINT ( 'NONE',  ( 1.179247499148221481E-14, 1.999999999999994005, 3.377499074759348741 ) ) ;
#53 = DATE_AND_TIME ( #147, #74 ) ;
#54 = DATE_AND_TIME ( #101, #68 ) ;
#55 = EDGE_LOOP ( 'NONE', ( #133 ) ) ;
#56 = FACE_BOUND ( 'NONE', #125, .T. ) ;
#57 = EDGE_LOOP ( 'NONE', ( #89 ) ) ;
#58 = CC_DESIGN_PERSON_AND_ORGANIZATION_ASSIGNMENT ( #87, #149, ( #128 ) ) ;
#59 = DIRECTION ( 'NONE',  ( 3.491481338843133355E-15, -1.224646799147353207E-16, 1.000000000000000000 ) ) ;
#60 = CARTESIAN_POINT ( 'NONE',  ( 1.179247499148221323E-14, -4.136243431027183387E-16, 3.377499074759348296 ) ) ;
#61 = CONICAL_SURFACE ( 'NONE', #196, 1.700000000000001510, 0.7853981633974338461 ) ;
#62 = AXIS2_PLACEMENT_3D ( 'NONE', #71, #31, #135 ) ;
#63 = DATE_TIME_ROLE ( 'classification_date' ) ;
#64 = DIRECTION ( 'NONE',  ( -3.491481338843133355E-15, 1.224646799147353207E-16, -1.000000000000000000 ) ) ;
#65 = DIRECTION ( 'NONE',  ( 1.000000000000000000, 0.0000000000000000000, 0.0000000000000000000 ) ) ;
#66 = CALENDAR_DATE ( 2021, 25, 11 ) ;
#67 = PRODUCT_DEFINITION ( 'UNKNOWN', '', #128, #19 ) ;
#68 = LOCAL_TIME ( 14, 42, 33.00000000000000000, #163 ) ;
#69 = PERSON_AND_ORGANIZATION ( #154, #162 ) ;
#70 = DIRECTION ( 'NONE',  ( 0.0000000000000000000, 1.000000000000000000, 0.0000000000000000000 ) ) ;
#71 = CARTESIAN_POINT ( 'NONE',  ( 1.179247499148221323E-14, -4.136243431027183387E-16, 3.377499074759348296 ) ) ;
#72 = SHAPE_DEFINITION_REPRESENTATION ( #169, #32 ) ;
#73 = APPROVAL_PERSON_ORGANIZATION ( #79, #140, #4 ) ;
#74 = LOCAL_TIME ( 14, 42, 33.00000000000000000, #130 ) ;
#75 = DIRECTION ( 'NONE',  ( -3.491481338843133355E-15, 1.224646799147353207E-16, -1.000000000000000000 ) ) ;
#76 = CC_DESIGN_PERSON_AND_ORGANIZATION_ASSIGNMENT ( #24, #12, ( #128 ) ) ;
#77 = AXIS2_PLACEMENT_3D ( 'NONE', #174, #129, #179 ) ;
#78 = APPROVAL_PERSON_ORGANIZATION ( #177, #185, #195 ) ;
#79 = PERSON_AND_ORGANIZATION ( #154, #162 ) ;
#80 = PERSON_AND_ORGANIZATION ( #154, #162 ) ;
#81 = APPROVAL ( #132, 'UNSPECIFIED' ) ;
#82 = DATE_AND_TIME ( #90, #26 ) ;
#83 = VERTEX_POINT ( 'NONE', #52 ) ;
#84 = PLANE ( 'NONE',  #30 ) ;
#85 = CIRCLE ( 'NONE', #41, 1.700000000000001510 ) ;
#86 = CC_DESIGN_APPROVAL ( #81, ( #128 ) ) ;
#87 = PERSON_AND_ORGANIZATION ( #154, #162 ) ;
#88 = DIRECTION ( 'NONE',  ( -4.275831445896958607E-31, -1.000000000000000000, -1.224646799147353207E-16 ) ) ;
#89 = ORIENTED_EDGE ( 'NONE', *, *, #93, .F. ) ;
#90 = CALENDAR_DATE ( 2021, 25, 11 ) ;
#91 = PLANE ( 'NONE',  #119 ) ;
#92 = DIRECTION ( 'NONE',  ( 0.0000000000000000000, 1.000000000000000000, 0.0000000000000000000 ) ) ;
#93 = EDGE_CURVE ( 'NONE', #17, #17, #85, .T. ) ;
#94 = AXIS2_PLACEMENT_3D ( 'NONE', #182, #171, #88 ) ;
#95 = MANIFOLD_SOLID_BREP ( 'Corps-Déplacer/Copier1[2]', #1 ) ;
#96 = DIRECTION ( 'NONE',  ( -3.491481338843133355E-15, 1.224646799147353207E-16, -1.000000000000000000 ) ) ;
#97 = MANIFOLD_SOLID_BREP ( 'Corps-Déplacer/Copier1[1]', #9 ) ;
#98 = CC_DESIGN_PERSON_AND_ORGANIZATION_ASSIGNMENT ( #80, #164, ( #110 ) ) ;
#99 = DATE_AND_TIME ( #145, #102 ) ;
#100 = VERTEX_POINT ( 'NONE', #37 ) ;
#101 = CALENDAR_DATE ( 2021, 25, 11 ) ;
#102 = LOCAL_TIME ( 14, 42, 33.00000000000000000, #103 ) ;
#103 = COORDINATED_UNIVERSAL_TIME_OFFSET ( 1, 0, .AHEAD. ) ;
#104 = APPLICATION_PROTOCOL_DEFINITION ( 'international standard', 'config_control_design', 1994, #203 ) ;
#105 = APPLICATION_CONTEXT ( 'configuration controlled 3d designs of mechanical parts and assemblies' ) ;
#106 = FACE_OUTER_BOUND ( 'NONE', #16, .T. ) ;
#107 = SECURITY_CLASSIFICATION_LEVEL ( 'unclassified' ) ;
#108 = FACE_OUTER_BOUND ( 'NONE', #57, .T. ) ;
#109 = DIRECTION ( 'NONE',  ( -4.275831445896958607E-31, -1.000000000000000000, -1.224646799147353207E-16 ) ) ;
#110 = PRODUCT ( '45813', '45813', '', ( #10 ) ) ;
#111 = EDGE_LOOP ( 'NONE', ( #184 ) ) ;
#112 = APPROVAL_DATE_TIME ( #82, #185 ) ;
#113 = DIRECTION ( 'NONE',  ( -3.491481338843133355E-15, 1.224646799147353207E-16, -1.000000000000000000 ) ) ;
#114 = DIRECTION ( 'NONE',  ( 0.0000000000000000000, 1.000000000000000000, 0.0000000000000000000 ) ) ;
#115 = FACE_OUTER_BOUND ( 'NONE', #170, .T. ) ;
#116 = APPROVAL_DATE_TIME ( #54, #81 ) ;
#117 = APPROVAL_STATUS ( 'not_yet_approved' ) ;
#118 = ADVANCED_FACE ( 'NONE', ( #186, #45 ), #61, .T. ) ;
#119 = AXIS2_PLACEMENT_3D ( 'NONE', #153, #28, #200 ) ;
#120 = DATE_AND_TIME ( #66, #158 ) ;
#121 = EDGE_LOOP ( 'NONE', ( #165 ) ) ;
#122 =( NAMED_UNIT ( * ) SI_UNIT ( $, .STERADIAN. ) SOLID_ANGLE_UNIT ( ) );
#123 = EDGE_LOOP ( 'NONE', ( #167 ) ) ;
#124 = CC_DESIGN_PERSON_AND_ORGANIZATION_ASSIGNMENT ( #180, #189, ( #25 ) ) ;
#125 = EDGE_LOOP ( 'NONE', ( #38 ) ) ;
#126 = DIRECTION ( 'NONE',  ( -3.491481338843133355E-15, 1.224646799147353207E-16, -1.000000000000000000 ) ) ;
#127 = DIRECTION ( 'NONE',  ( 7.703719777548964432E-31, 1.000000000000000000, 2.168404344971014784E-16 ) ) ;
#128 = PRODUCT_DEFINITION_FORMATION_WITH_SPECIFIED_SOURCE ( 'ANY', '', #110, .NOT_KNOWN. ) ;
#129 = DIRECTION ( 'NONE',  ( -3.491481338843133355E-15, 1.224646799147353207E-16, -1.000000000000000000 ) ) ;
#130 = COORDINATED_UNIVERSAL_TIME_OFFSET ( 1, 0, .AHEAD. ) ;
#131 = VERTEX_POINT ( 'NONE', #5 ) ;
#132 = APPROVAL_STATUS ( 'not_yet_approved' ) ;
#133 = ORIENTED_EDGE ( 'NONE', *, *, #188, .F. ) ;
#134 = ADVANCED_FACE ( 'NONE', ( #27 ), #199, .F. ) ;
#135 = DIRECTION ( 'NONE',  ( 7.703719777548964432E-31, 1.000000000000000000, 2.168404344971014784E-16 ) ) ;
#136 = CIRCLE ( 'NONE', #62, 1.999999999999994449 ) ;
#137 = DIRECTION ( 'NONE',  ( 4.275831445896958607E-31, 1.000000000000000000, 1.224646799147353207E-16 ) ) ;
#138 = CARTESIAN_POINT ( 'NONE',  ( 0.0000000000000000000, 0.0000000000000000000, 0.0000000000000000000 ) ) ;
#139 = CONICAL_SURFACE ( 'NONE', #48, 1.999999999999994449, 0.5235987755982928205 ) ;
#140 = APPROVAL ( #117, 'UNSPECIFIED' ) ;
#141 = AXIS2_PLACEMENT_3D ( 'NONE', #46, #64, #114 ) ;
#142 = CARTESIAN_POINT ( 'NONE',  ( 1.179247499148221323E-14, -4.136243431027183387E-16, 3.377499074759348296 ) ) ;
#143 = CARTESIAN_POINT ( 'NONE',  ( 0.0000000000000000000, 0.0000000000000000000, 0.0000000000000000000 ) ) ;
#144 = DIRECTION ( 'NONE',  ( 0.0000000000000000000, 0.0000000000000000000, 1.000000000000000000 ) ) ;
#145 = CALENDAR_DATE ( 2021, 25, 11 ) ;
#146 = PRODUCT_RELATED_PRODUCT_CATEGORY ( 'detail', '', ( #110 ) ) ;
#147 = CALENDAR_DATE ( 2021, 25, 11 ) ;
#148 = AXIS2_PLACEMENT_3D ( 'NONE', #142, #3, #127 ) ;
#149 = PERSON_AND_ORGANIZATION_ROLE ( 'design_supplier' ) ;
#150 = CARTESIAN_POINT ( 'NONE',  ( 1.179247499148221481E-14, -7.323783668843753939E-16, 3.377499074759348741 ) ) ;
#151 = ORIENTED_EDGE ( 'NONE', *, *, #93, .T. ) ;
#152 = EDGE_CURVE ( 'NONE', #83, #83, #136, .T. ) ;
#153 = CARTESIAN_POINT ( 'NONE',  ( 1.179247499148221481E-14, -7.323783668843753939E-16, 3.377499074759348741 ) ) ;
#154 = PERSON ( 'UNSPECIFIED', 'UNSPECIFIED', 'UNSPECIFIED', ('UNSPECIFIED'), ('UNSPECIFIED'), ('UNSPECIFIED') ) ;
#155 =( GEOMETRIC_REPRESENTATION_CONTEXT ( 3 ) GLOBAL_UNCERTAINTY_ASSIGNED_CONTEXT ( ( #6 ) ) GLOBAL_UNIT_ASSIGNED_CONTEXT ( ( #193, #20, #122 ) ) REPRESENTATION_CONTEXT ( 'NONE', 'WORKASPACE' ) );
#156 = CC_DESIGN_APPROVAL ( #140, ( #67 ) ) ;
#157 = CC_DESIGN_PERSON_AND_ORGANIZATION_ASSIGNMENT ( #8, #192, ( #67 ) ) ;
#158 = LOCAL_TIME ( 14, 42, 33.00000000000000000, #34 ) ;
#159 = DIRECTION ( 'NONE',  ( 4.275831445896957731E-31, 1.000000000000000000, 1.224646799147353454E-16 ) ) ;
#160 = VERTEX_POINT ( 'NONE', #39 ) ;
#161 = ADVANCED_FACE ( 'NONE', ( #56, #42 ), #139, .T. ) ;
#162 = ORGANIZATION ( 'UNSPECIFIED', 'UNSPECIFIED', '' ) ;
#163 = COORDINATED_UNIVERSAL_TIME_OFFSET ( 1, 0, .AHEAD. ) ;
#164 = PERSON_AND_ORGANIZATION_ROLE ( 'design_owner' ) ;
#165 = ORIENTED_EDGE ( 'NONE', *, *, #152, .F. ) ;
#166 = AXIS2_PLACEMENT_3D ( 'NONE', #15, #75, #137 ) ;
#167 = ORIENTED_EDGE ( 'NONE', *, *, #175, .F. ) ;
#168 = CC_DESIGN_APPROVAL ( #185, ( #25 ) ) ;
#169 = PRODUCT_DEFINITION_SHAPE ( 'NONE', 'NONE',  #67 ) ;
#170 = EDGE_LOOP ( 'NONE', ( #43 ) ) ;
#171 = DIRECTION ( 'NONE',  ( 3.491481338843133355E-15, -1.224646799147353207E-16, 1.000000000000000000 ) ) ;
#172 = CIRCLE ( 'NONE', #77, 0.04999999999999996114 ) ;
#173 = CC_DESIGN_SECURITY_CLASSIFICATION ( #25, ( #128 ) ) ;
#174 = CARTESIAN_POINT ( 'NONE',  ( -2.137915722948477442E-32, 7.498798913309282052E-34, -6.123233995736760951E-18 ) ) ;
#175 = EDGE_CURVE ( 'NONE', #160, #160, #35, .T. ) ;
#176 = AXIS2_PLACEMENT_3D ( 'NONE', #143, #144, #65 ) ;
#177 = PERSON_AND_ORGANIZATION ( #154, #162 ) ;
#178 = APPROVAL_PERSON_ORGANIZATION ( #69, #81, #198 ) ;
#179 = DIRECTION ( 'NONE',  ( 4.275831445896958607E-31, 1.000000000000000000, 1.224646799147353207E-16 ) ) ;
#180 = PERSON_AND_ORGANIZATION ( #154, #162 ) ;
#181 = EDGE_CURVE ( 'NONE', #100, #100, #172, .T. ) ;
#182 = CARTESIAN_POINT ( 'NONE',  ( -1.068957861474238721E-32, 3.749399456654641026E-34, -3.061616997868380476E-18 ) ) ;
#183 = PLANE ( 'NONE',  #166 ) ;
#184 = ORIENTED_EDGE ( 'NONE', *, *, #188, .T. ) ;
#185 = APPROVAL ( #36, 'UNSPECIFIED' ) ;
#186 = FACE_OUTER_BOUND ( 'NONE', #123, .T. ) ;
#187 = DIRECTION ( 'NONE',  ( -7.703719777548964432E-31, -1.000000000000000000, -2.168404344971014784E-16 ) ) ;
#188 = EDGE_CURVE ( 'NONE', #131, #131, #190, .T. ) ;
#189 = PERSON_AND_ORGANIZATION_ROLE ( 'classification_officer' ) ;
#190 = CIRCLE ( 'NONE', #148, 1.999999999999994449 ) ;
#191 = FACE_OUTER_BOUND ( 'NONE', #121, .T. ) ;
#192 = PERSON_AND_ORGANIZATION_ROLE ( 'creator' ) ;
#193 =( LENGTH_UNIT ( ) NAMED_UNIT ( * ) SI_UNIT ( .MILLI., .METRE. ) );
#194 = ADVANCED_FACE ( 'NONE', ( #191, #115 ), #33, .T. ) ;
#195 = APPROVAL_ROLE ( '' ) ;
#196 = AXIS2_PLACEMENT_3D ( 'NONE', #13, #113, #70 ) ;
#197 = EDGE_LOOP ( 'NONE', ( #151 ) ) ;
#198 = APPROVAL_ROLE ( '' ) ;
#199 = PLANE ( 'NONE',  #94 ) ;
#200 = DIRECTION ( 'NONE',  ( -4.275831445896958607E-31, -1.000000000000000000, -1.224646799147353207E-16 ) ) ;
#201 = EDGE_LOOP ( 'NONE', ( #29 ) ) ;
#202 = FACE_OUTER_BOUND ( 'NONE', #55, .T. ) ;
#203 = APPLICATION_CONTEXT ( 'configuration controlled 3d designs of mechanical parts and assemblies' ) ;
ENDSEC;
END-ISO-10303-21;
