ISO-10303-21;
HEADER;
FILE_DESCRIPTION (( 'STEP AP203' ),
    '1' );
FILE_NAME ('45812.step',
    '2021-11-24T08:23:36',
    ( '' ),
    ( '' ),
    'SwSTEP 2.0',
    'SolidWorks 2019',
    '' );
FILE_SCHEMA (( 'CONFIG_CONTROL_DESIGN' ));
ENDSEC;

DATA;
#1 = CARTESIAN_POINT ( 'NONE',  ( 1.745740669421566678E-13, 1.599999999999995204, 50.00000000000000000 ) ) ;
#2 = PLANE ( 'NONE',  #142 ) ;
#3 = DIRECTION ( 'NONE',  ( 1.000000000000000000, 0.0000000000000000000, 0.0000000000000000000 ) ) ;
#4 = PERSON_AND_ORGANIZATION ( #180, #172 ) ;
#5 = SECURITY_CLASSIFICATION_LEVEL ( 'unclassified' ) ;
#6 = PERSON_AND_ORGANIZATION ( #180, #172 ) ;
#7 = APPROVAL_PERSON_ORGANIZATION ( #6, #153, #37 ) ;
#8 = LOCAL_TIME ( 9, 23, 36.00000000000000000, #42 ) ;
#9 = COORDINATED_UNIVERSAL_TIME_OFFSET ( 1, 0, .AHEAD. ) ;
#10 = DIRECTION ( 'NONE',  ( -4.275831445896958607E-31, -1.000000000000000000, -1.224646799147353207E-16 ) ) ;
#11 = CIRCLE ( 'NONE', #131, 1.600000000000001421 ) ;
#12 = DIRECTION ( 'NONE',  ( 0.0000000000000000000, 1.000000000000000000, 0.0000000000000000000 ) ) ;
#13 = DIRECTION ( 'NONE',  ( -3.491481338843133355E-15, 1.224646799147353207E-16, -1.000000000000000000 ) ) ;
#14 = DESIGN_CONTEXT ( 'detailed design', #184, 'design' ) ;
#15 = DIRECTION ( 'NONE',  ( -3.491481338843133355E-15, 1.224646799147353207E-16, -1.000000000000000000 ) ) ;
#16 = LOCAL_TIME ( 9, 23, 36.00000000000000000, #55 ) ;
#17 = CARTESIAN_POINT ( 'NONE',  ( 1.164128941466833959E-14, -4.083214669090937093E-16, 3.334197804570125712 ) ) ;
#18 = CARTESIAN_POINT ( 'NONE',  ( -8.409538014437862262E-33, 2.949668868945377181E-34, -2.408587415570801115E-18 ) ) ;
#19 =( GEOMETRIC_REPRESENTATION_CONTEXT ( 3 ) GLOBAL_UNCERTAINTY_ASSIGNED_CONTEXT ( ( #91 ) ) GLOBAL_UNIT_ASSIGNED_CONTEXT ( ( #130, #28, #160 ) ) REPRESENTATION_CONTEXT ( 'NONE', 'WORKASPACE' ) );
#20 = APPROVAL_DATE_TIME ( #84, #120 ) ;
#21 = APPROVAL_DATE_TIME ( #69, #177 ) ;
#22 = PERSON_AND_ORGANIZATION ( #180, #172 ) ;
#23 = PLANE ( 'NONE',  #125 ) ;
#24 = ADVANCED_FACE ( 'NONE', ( #104 ), #23, .T. ) ;
#25 = CIRCLE ( 'NONE', #94, 0.07500000000000044131 ) ;
#26 = VERTEX_POINT ( 'NONE', #62 ) ;
#27 = FACE_BOUND ( 'NONE', #115, .T. ) ;
#28 =( NAMED_UNIT ( * ) PLANE_ANGLE_UNIT ( ) SI_UNIT ( $, .RADIAN. ) );
#29 = AXIS2_PLACEMENT_3D ( 'NONE', #92, #63, #46 ) ;
#30 = CARTESIAN_POINT ( 'NONE',  ( 0.0000000000000000000, 0.0000000000000000000, 0.0000000000000000000 ) ) ;
#31 = FACE_OUTER_BOUND ( 'NONE', #196, .T. ) ;
#32 = EDGE_LOOP ( 'NONE', ( #151 ) ) ;
#33 = APPROVAL_DATE_TIME ( #178, #153 ) ;
#34 = ADVANCED_FACE ( 'NONE', ( #118 ), #73, .F. ) ;
#35 = APPLICATION_PROTOCOL_DEFINITION ( 'international standard', 'config_control_design', 1994, #184 ) ;
#36 = ORIENTED_EDGE ( 'NONE', *, *, #187, .F. ) ;
#37 = APPROVAL_ROLE ( '' ) ;
#38 = EDGE_LOOP ( 'NONE', ( #168 ) ) ;
#39 = ADVANCED_FACE ( 'NONE', ( #31, #156 ), #188, .T. ) ;
#40 = PERSON_AND_ORGANIZATION_ROLE ( 'creator' ) ;
#41 = EDGE_LOOP ( 'NONE', ( #100 ) ) ;
#42 = COORDINATED_UNIVERSAL_TIME_OFFSET ( 1, 0, .AHEAD. ) ;
#43 = PRODUCT_DEFINITION_FORMATION_WITH_SPECIFIED_SOURCE ( 'ANY', '', #192, .NOT_KNOWN. ) ;
#44 = EDGE_LOOP ( 'NONE', ( #97 ) ) ;
#45 = SECURITY_CLASSIFICATION ( '', '', #5 ) ;
#46 = DIRECTION ( 'NONE',  ( -7.703719777548964432E-31, -1.000000000000000000, -2.168404344971014784E-16 ) ) ;
#47 = CONICAL_SURFACE ( 'NONE', #170, 1.600000000000001421, 0.7853981633974512766 ) ;
#48 = VERTEX_POINT ( 'NONE', #158 ) ;
#49 = DIRECTION ( 'NONE',  ( -3.491481338843133355E-15, 1.224646799147353207E-16, -1.000000000000000000 ) ) ;
#50 = AXIS2_PLACEMENT_3D ( 'NONE', #51, #203, #175 ) ;
#51 = CARTESIAN_POINT ( 'NONE',  ( 1.164128941466833959E-14, -4.083214669090937093E-16, 3.334197804570125712 ) ) ;
#52 = ORIENTED_EDGE ( 'NONE', *, *, #187, .T. ) ;
#53 = COORDINATED_UNIVERSAL_TIME_OFFSET ( 1, 0, .AHEAD. ) ;
#54 = EDGE_LOOP ( 'NONE', ( #164 ) ) ;
#55 = COORDINATED_UNIVERSAL_TIME_OFFSET ( 1, 0, .AHEAD. ) ;
#56 = AXIS2_PLACEMENT_3D ( 'NONE', #17, #13, #161 ) ;
#57 = APPLICATION_PROTOCOL_DEFINITION ( 'international standard', 'config_control_design', 1994, #154 ) ;
#58 = EDGE_CURVE ( 'NONE', #176, #176, #122, .T. ) ;
#59 = PERSON_AND_ORGANIZATION_ROLE ( 'design_supplier' ) ;
#60 = CARTESIAN_POINT ( 'NONE',  ( 1.164128941466834748E-14, 5.060922304495882171E-15, 3.334197804570127932 ) ) ;
#61 = AXIS2_PLACEMENT_3D ( 'NONE', #30, #79, #96 ) ;
#62 = CARTESIAN_POINT ( 'NONE',  ( 1.731774744066194397E-13, 1.999999999999995337, 49.60000000000000853 ) ) ;
#63 = DIRECTION ( 'NONE',  ( 3.491481338843133355E-15, -1.224646799147353207E-16, 1.000000000000000000 ) ) ;
#64 = DIRECTION ( 'NONE',  ( -3.491481338843133355E-15, 1.224646799147353207E-16, -1.000000000000000000 ) ) ;
#65 = DIRECTION ( 'NONE',  ( -4.275831445896958607E-31, -1.000000000000000000, -1.224646799147353207E-16 ) ) ;
#66 = DIRECTION ( 'NONE',  ( 4.275831445896958607E-31, 1.000000000000000000, 1.224646799147353454E-16 ) ) ;
#67 = AXIS2_PLACEMENT_3D ( 'NONE', #138, #15, #90 ) ;
#68 = APPROVAL_ROLE ( '' ) ;
#69 = DATE_AND_TIME ( #133, #186 ) ;
#70 = PERSON_AND_ORGANIZATION_ROLE ( 'classification_officer' ) ;
#71 = EDGE_CURVE ( 'NONE', #26, #26, #139, .T. ) ;
#72 = APPROVAL_STATUS ( 'not_yet_approved' ) ;
#73 = PLANE ( 'NONE',  #67 ) ;
#74 = AXIS2_PLACEMENT_3D ( 'NONE', #135, #81, #3 ) ;
#75 = CC_DESIGN_PERSON_AND_ORGANIZATION_ASSIGNMENT ( #137, #147, ( #43 ) ) ;
#76 = DIRECTION ( 'NONE',  ( 3.491481338843133355E-15, -1.224646799147353207E-16, 1.000000000000000000 ) ) ;
#77 = FACE_OUTER_BOUND ( 'NONE', #179, .T. ) ;
#78 = DIRECTION ( 'NONE',  ( -4.275831445896958607E-31, -1.000000000000000000, -1.224646799147353207E-16 ) ) ;
#79 = DIRECTION ( 'NONE',  ( -3.491481338843133355E-15, 1.224646799147353207E-16, -1.000000000000000000 ) ) ;
#80 = DIRECTION ( 'NONE',  ( -3.491481338843133355E-15, 1.224646799147353207E-16, -1.000000000000000000 ) ) ;
#81 = DIRECTION ( 'NONE',  ( 0.0000000000000000000, 0.0000000000000000000, 1.000000000000000000 ) ) ;
#82 = APPROVAL_PERSON_ORGANIZATION ( #99, #177, #68 ) ;
#83 = CC_DESIGN_PERSON_AND_ORGANIZATION_ASSIGNMENT ( #116, #40, ( #201 ) ) ;
#84 = DATE_AND_TIME ( #166, #16 ) ;
#85 = APPROVAL_ROLE ( '' ) ;
#86 = CALENDAR_DATE ( 2021, 24, 11 ) ;
#87 = ORIENTED_EDGE ( 'NONE', *, *, #199, .T. ) ;
#88 = PRODUCT_RELATED_PRODUCT_CATEGORY ( 'detail', '', ( #192 ) ) ;
#89 = CLOSED_SHELL ( 'NONE', ( #106, #39, #105, #34 ) ) ;
#90 = DIRECTION ( 'NONE',  ( 4.275831445896958607E-31, 1.000000000000000000, 1.224646799147353207E-16 ) ) ;
#91 = UNCERTAINTY_MEASURE_WITH_UNIT (LENGTH_MEASURE( 1.000000000000000082E-05 ), #130, 'distance_accuracy_value', 'NONE');
#92 = CARTESIAN_POINT ( 'NONE',  ( 1.164128941466833959E-14, -4.083214669090937093E-16, 3.334197804570125712 ) ) ;
#93 = CARTESIAN_POINT ( 'NONE',  ( -4.204769007218931131E-33, 1.474834434472688590E-34, -1.204293707785400557E-18 ) ) ;
#94 = AXIS2_PLACEMENT_3D ( 'NONE', #18, #80, #66 ) ;
#95 = DIRECTION ( 'NONE',  ( 3.491481338843133355E-15, -1.224646799147353207E-16, 1.000000000000000000 ) ) ;
#96 = DIRECTION ( 'NONE',  ( 4.275831445896957731E-31, 1.000000000000000000, 1.224646799147353454E-16 ) ) ;
#97 = ORIENTED_EDGE ( 'NONE', *, *, #171, .T. ) ;
#98 = APPROVAL_PERSON_ORGANIZATION ( #4, #120, #85 ) ;
#99 = PERSON_AND_ORGANIZATION ( #180, #172 ) ;
#100 = ORIENTED_EDGE ( 'NONE', *, *, #199, .F. ) ;
#101 = MECHANICAL_CONTEXT ( 'NONE', #154, 'mechanical' ) ;
#102 = ORIENTED_EDGE ( 'NONE', *, *, #171, .F. ) ;
#103 = CC_DESIGN_APPROVAL ( #153, ( #45 ) ) ;
#104 = FACE_OUTER_BOUND ( 'NONE', #32, .T. ) ;
#105 = ADVANCED_FACE ( 'NONE', ( #173, #124 ), #47, .T. ) ;
#106 = ADVANCED_FACE ( 'NONE', ( #77 ), #2, .F. ) ;
#107 = CARTESIAN_POINT ( 'NONE',  ( 1.164128941466834117E-14, 1.999999999999994005, 3.334197804570126156 ) ) ;
#108 = CARTESIAN_POINT ( 'NONE',  ( 1.164128941466834748E-14, 5.060922304495882171E-15, 3.334197804570127932 ) ) ;
#109 = CC_DESIGN_PERSON_AND_ORGANIZATION_ASSIGNMENT ( #22, #169, ( #192 ) ) ;
#110 = CARTESIAN_POINT ( 'NONE',  ( 1.745740669421566678E-13, -6.123233995736766085E-15, 50.00000000000000000 ) ) ;
#111 = AXIS2_PLACEMENT_3D ( 'NONE', #190, #49, #12 ) ;
#112 = VERTEX_POINT ( 'NONE', #107 ) ;
#113 = DATE_TIME_ROLE ( 'classification_date' ) ;
#114 = MANIFOLD_SOLID_BREP ( 'Corps-Déplacer/Copier1[1]', #89 ) ;
#115 = EDGE_LOOP ( 'NONE', ( #102 ) ) ;
#116 = PERSON_AND_ORGANIZATION ( #180, #172 ) ;
#117 = CLOSED_SHELL ( 'NONE', ( #127, #123, #24 ) ) ;
#118 = FACE_OUTER_BOUND ( 'NONE', #41, .T. ) ;
#119 = SHAPE_DEFINITION_REPRESENTATION ( #132, #128 ) ;
#120 = APPROVAL ( #150, 'UNSPECIFIED' ) ;
#121 = CC_DESIGN_SECURITY_CLASSIFICATION ( #45, ( #43 ) ) ;
#122 = CIRCLE ( 'NONE', #56, 1.999999999999994449 ) ;
#123 = ADVANCED_FACE ( 'NONE', ( #27, #174 ), #152, .T. ) ;
#124 = FACE_BOUND ( 'NONE', #183, .T. ) ;
#125 = AXIS2_PLACEMENT_3D ( 'NONE', #60, #198, #10 ) ;
#126 = FACE_OUTER_BOUND ( 'NONE', #44, .T. ) ;
#127 = ADVANCED_FACE ( 'NONE', ( #126 ), #141, .F. ) ;
#128 = ADVANCED_BREP_SHAPE_REPRESENTATION ( '45812', ( #114, #185, #74 ), #19 ) ;
#129 = DIRECTION ( 'NONE',  ( -3.491481338843133355E-15, 1.224646799147353207E-16, -1.000000000000000000 ) ) ;
#130 =( LENGTH_UNIT ( ) NAMED_UNIT ( * ) SI_UNIT ( .MILLI., .METRE. ) );
#131 = AXIS2_PLACEMENT_3D ( 'NONE', #189, #129, #145 ) ;
#132 = PRODUCT_DEFINITION_SHAPE ( 'NONE', 'NONE',  #201 ) ;
#133 = CALENDAR_DATE ( 2021, 24, 11 ) ;
#134 = DATE_AND_TIME ( #195, #159 ) ;
#135 = CARTESIAN_POINT ( 'NONE',  ( 0.0000000000000000000, 0.0000000000000000000, 0.0000000000000000000 ) ) ;
#136 = CC_DESIGN_PERSON_AND_ORGANIZATION_ASSIGNMENT ( #197, #59, ( #43 ) ) ;
#137 = PERSON_AND_ORGANIZATION ( #180, #172 ) ;
#138 = CARTESIAN_POINT ( 'NONE',  ( 1.745740669421566678E-13, 1.199807826129478012E-32, 50.00000000000000000 ) ) ;
#139 = CIRCLE ( 'NONE', #111, 2.000000000000001332 ) ;
#140 = CARTESIAN_POINT ( 'NONE',  ( 1.164128941466834117E-14, 1.999999999999994005, 3.334197804570126156 ) ) ;
#141 = PLANE ( 'NONE',  #165 ) ;
#142 = AXIS2_PLACEMENT_3D ( 'NONE', #108, #76, #65 ) ;
#143 = VERTEX_POINT ( 'NONE', #1 ) ;
#144 = DIRECTION ( 'NONE',  ( 0.0000000000000000000, 1.000000000000000000, 0.0000000000000000000 ) ) ;
#145 = DIRECTION ( 'NONE',  ( 0.0000000000000000000, 1.000000000000000000, 0.0000000000000000000 ) ) ;
#146 = APPROVAL_STATUS ( 'not_yet_approved' ) ;
#147 = PERSON_AND_ORGANIZATION_ROLE ( 'creator' ) ;
#148 = PERSON_AND_ORGANIZATION ( #180, #172 ) ;
#149 = EDGE_LOOP ( 'NONE', ( #193 ) ) ;
#150 = APPROVAL_STATUS ( 'not_yet_approved' ) ;
#151 = ORIENTED_EDGE ( 'NONE', *, *, #58, .F. ) ;
#152 = CONICAL_SURFACE ( 'NONE', #29, 1.999999999999994449, 0.5235987755982927094 ) ;
#153 = APPROVAL ( #72, 'UNSPECIFIED' ) ;
#154 = APPLICATION_CONTEXT ( 'configuration controlled 3d designs of mechanical parts and assemblies' ) ;
#155 = CC_DESIGN_APPROVAL ( #120, ( #43 ) ) ;
#156 = FACE_OUTER_BOUND ( 'NONE', #54, .T. ) ;
#157 = CC_DESIGN_DATE_AND_TIME_ASSIGNMENT ( #134, #113, ( #45 ) ) ;
#158 = CARTESIAN_POINT ( 'NONE',  ( 2.365919782978951696E-32, 0.07500000000000044131, 6.776263578034402713E-18 ) ) ;
#159 = LOCAL_TIME ( 9, 23, 36.00000000000000000, #53 ) ;
#160 =( NAMED_UNIT ( * ) SI_UNIT ( $, .STERADIAN. ) SOLID_ANGLE_UNIT ( ) );
#161 = DIRECTION ( 'NONE',  ( 7.703719777548964432E-31, 1.000000000000000000, 2.168404344971014784E-16 ) ) ;
#162 = CALENDAR_DATE ( 2021, 24, 11 ) ;
#163 = CC_DESIGN_PERSON_AND_ORGANIZATION_ASSIGNMENT ( #148, #70, ( #45 ) ) ;
#164 = ORIENTED_EDGE ( 'NONE', *, *, #71, .T. ) ;
#165 = AXIS2_PLACEMENT_3D ( 'NONE', #93, #95, #78 ) ;
#166 = CALENDAR_DATE ( 2021, 24, 11 ) ;
#167 = DATE_TIME_ROLE ( 'creation_date' ) ;
#168 = ORIENTED_EDGE ( 'NONE', *, *, #71, .F. ) ;
#169 = PERSON_AND_ORGANIZATION_ROLE ( 'design_owner' ) ;
#170 = AXIS2_PLACEMENT_3D ( 'NONE', #110, #64, #144 ) ;
#171 = EDGE_CURVE ( 'NONE', #48, #48, #25, .T. ) ;
#172 = ORGANIZATION ( 'UNSPECIFIED', 'UNSPECIFIED', '' ) ;
#173 = FACE_OUTER_BOUND ( 'NONE', #38, .T. ) ;
#174 = FACE_OUTER_BOUND ( 'NONE', #149, .T. ) ;
#175 = DIRECTION ( 'NONE',  ( 7.703719777548964432E-31, 1.000000000000000000, 2.168404344971014784E-16 ) ) ;
#176 = VERTEX_POINT ( 'NONE', #140 ) ;
#177 = APPROVAL ( #146, 'UNSPECIFIED' ) ;
#178 = DATE_AND_TIME ( #162, #191 ) ;
#179 = EDGE_LOOP ( 'NONE', ( #52 ) ) ;
#180 = PERSON ( 'UNSPECIFIED', 'UNSPECIFIED', 'UNSPECIFIED', ('UNSPECIFIED'), ('UNSPECIFIED'), ('UNSPECIFIED') ) ;
#181 = COORDINATED_UNIVERSAL_TIME_OFFSET ( 1, 0, .AHEAD. ) ;
#182 = CIRCLE ( 'NONE', #50, 1.999999999999994449 ) ;
#183 = EDGE_LOOP ( 'NONE', ( #87 ) ) ;
#184 = APPLICATION_CONTEXT ( 'configuration controlled 3d designs of mechanical parts and assemblies' ) ;
#185 = MANIFOLD_SOLID_BREP ( 'Corps-Déplacer/Copier1[2]', #117 ) ;
#186 = LOCAL_TIME ( 9, 23, 36.00000000000000000, #9 ) ;
#187 = EDGE_CURVE ( 'NONE', #112, #112, #182, .T. ) ;
#188 = CYLINDRICAL_SURFACE ( 'NONE', #61, 1.999999999999997780 ) ;
#189 = CARTESIAN_POINT ( 'NONE',  ( 1.745740669421566678E-13, -6.123233995736766085E-15, 50.00000000000000000 ) ) ;
#190 = CARTESIAN_POINT ( 'NONE',  ( 1.731774744066194397E-13, -6.074248123770872657E-15, 49.60000000000000853 ) ) ;
#191 = LOCAL_TIME ( 9, 23, 36.00000000000000000, #181 ) ;
#192 = PRODUCT ( '45812', '45812', '', ( #101 ) ) ;
#193 = ORIENTED_EDGE ( 'NONE', *, *, #58, .T. ) ;
#194 = DATE_AND_TIME ( #86, #8 ) ;
#195 = CALENDAR_DATE ( 2021, 24, 11 ) ;
#196 = EDGE_LOOP ( 'NONE', ( #36 ) ) ;
#197 = PERSON_AND_ORGANIZATION ( #180, #172 ) ;
#198 = DIRECTION ( 'NONE',  ( 3.491481338843133355E-15, -1.224646799147353207E-16, 1.000000000000000000 ) ) ;
#199 = EDGE_CURVE ( 'NONE', #143, #143, #11, .T. ) ;
#200 = CC_DESIGN_APPROVAL ( #177, ( #201 ) ) ;
#201 = PRODUCT_DEFINITION ( 'UNKNOWN', '', #43, #14 ) ;
#202 = CC_DESIGN_DATE_AND_TIME_ASSIGNMENT ( #194, #167, ( #201 ) ) ;
#203 = DIRECTION ( 'NONE',  ( -3.491481338843133355E-15, 1.224646799147353207E-16, -1.000000000000000000 ) ) ;
ENDSEC;
END-ISO-10303-21;
