ISO-10303-21;
HEADER;
FILE_DESCRIPTION (( 'STEP AP203' ),
    '1' );
FILE_NAME ('45798.step',
    '2021-11-17T10:13:23',
    ( '' ),
    ( '' ),
    'SwSTEP 2.0',
    'SolidWorks 2019',
    '' );
FILE_SCHEMA (( 'CONFIG_CONTROL_DESIGN' ));
ENDSEC;

DATA;
#1 = FACE_OUTER_BOUND ( 'NONE', #35, .T. ) ;
#2 = EDGE_LOOP ( 'NONE', ( #121 ) ) ;
#3 = PLANE ( 'NONE',  #23 ) ;
#4 = CC_DESIGN_PERSON_AND_ORGANIZATION_ASSIGNMENT ( #146, #163, ( #117 ) ) ;
#5 = CARTESIAN_POINT ( 'NONE',  ( 1.990144363140586139E-13, 1.874699728327311610E-32, 57.00000000000000000 ) ) ;
#6 = LOCAL_TIME ( 11, 13, 23.00000000000000000, #85 ) ;
#7 = DIRECTION ( 'NONE',  ( -4.172848212839010723E-31, -1.000000000000000000, -1.174552353525963055E-16 ) ) ;
#8 = CYLINDRICAL_SURFACE ( 'NONE', #18, 3.000000000000000000 ) ;
#9 = DIRECTION ( 'NONE',  ( -3.491481338843133355E-15, 1.224646799147353207E-16, -1.000000000000000000 ) ) ;
#10 = CONICAL_SURFACE ( 'NONE', #174, 2.999999999999999556, 0.7853981633974405074 ) ;
#11 = FACE_BOUND ( 'NONE', #2, .T. ) ;
#12 =( LENGTH_UNIT ( ) NAMED_UNIT ( * ) SI_UNIT ( .MILLI., .METRE. ) );
#13 = DESIGN_CONTEXT ( 'detailed design', #208, 'design' ) ;
#14 = PRODUCT_DEFINITION_SHAPE ( 'NONE', 'NONE',  #77 ) ;
#15 = PERSON_AND_ORGANIZATION ( #108, #109 ) ;
#16 = ADVANCED_FACE ( 'NONE', ( #207 ), #135, .F. ) ;
#17 = APPROVAL_PERSON_ORGANIZATION ( #103, #185, #82 ) ;
#18 = AXIS2_PLACEMENT_3D ( 'NONE', #111, #156, #65 ) ;
#19 = APPROVAL ( #218, 'UNSPECIFIED' ) ;
#20 = ORIENTED_EDGE ( 'NONE', *, *, #64, .T. ) ;
#21 = DIRECTION ( 'NONE',  ( -3.491481338843133355E-15, 1.224646799147353207E-16, -1.000000000000000000 ) ) ;
#22 = CARTESIAN_POINT ( 'NONE',  ( 5.237222008264700033E-14, -1.836970198721029589E-15, 15.00000000000000000 ) ) ;
#23 = AXIS2_PLACEMENT_3D ( 'NONE', #206, #187, #75 ) ;
#24 = DIRECTION ( 'NONE',  ( -3.491481338843133355E-15, 1.224646799147353207E-16, -1.000000000000000000 ) ) ;
#25 = ADVANCED_BREP_SHAPE_REPRESENTATION ( '45798', ( #165, #94, #57 ), #215 ) ;
#26 = CARTESIAN_POINT ( 'NONE',  ( 5.237222008264700033E-14, 2.999999999999998668, 15.00000000000000000 ) ) ;
#27 = DIRECTION ( 'NONE',  ( -3.491481338843133355E-15, 1.224646799147353207E-16, -1.000000000000000000 ) ) ;
#28 = CIRCLE ( 'NONE', #132, 2.500000000000000000 ) ;
#29 = APPROVAL_DATE_TIME ( #199, #185 ) ;
#30 = APPROVAL_DATE_TIME ( #220, #46 ) ;
#31 = DATE_TIME_ROLE ( 'creation_date' ) ;
#32 = EDGE_LOOP ( 'NONE', ( #186 ) ) ;
#33 = CC_DESIGN_DATE_AND_TIME_ASSIGNMENT ( #157, #116, ( #117 ) ) ;
#34 = CC_DESIGN_APPROVAL ( #46, ( #105 ) ) ;
#35 = EDGE_LOOP ( 'NONE', ( #36 ) ) ;
#36 = ORIENTED_EDGE ( 'NONE', *, *, #123, .F. ) ;
#37 = APPROVAL_PERSON_ORGANIZATION ( #48, #19, #181 ) ;
#38 = EDGE_LOOP ( 'NONE', ( #170 ) ) ;
#39 = CARTESIAN_POINT ( 'NONE',  ( 1.972686956446370283E-13, -6.919254415182544548E-15, 56.49999999999999289 ) ) ;
#40 = CARTESIAN_POINT ( 'NONE',  ( 6.982962677686250933E-16, -2.435834570415085380E-17, 0.1999999999999995393 ) ) ;
#41 = ADVANCED_FACE ( 'NONE', ( #134 ), #3, .T. ) ;
#42 = PLANE ( 'NONE',  #88 ) ;
#43 = CIRCLE ( 'NONE', #81, 2.799999999999998934 ) ;
#44 = CARTESIAN_POINT ( 'NONE',  ( 1.990144363140586139E-13, 2.499999999999992895, 57.00000000000000000 ) ) ;
#45 = CARTESIAN_POINT ( 'NONE',  ( 5.237222008264700033E-14, -1.836970198721029589E-15, 15.00000000000000000 ) ) ;
#46 = APPROVAL ( #86, 'UNSPECIFIED' ) ;
#47 = CALENDAR_DATE ( 2021, 17, 11 ) ;
#48 = PERSON_AND_ORGANIZATION ( #108, #109 ) ;
#49 = COORDINATED_UNIVERSAL_TIME_OFFSET ( 1, 0, .AHEAD. ) ;
#50 = PRODUCT ( '45798', '45798', '', ( #200 ) ) ;
#51 = CC_DESIGN_PERSON_AND_ORGANIZATION_ASSIGNMENT ( #144, #183, ( #77 ) ) ;
#52 = SECURITY_CLASSIFICATION_LEVEL ( 'unclassified' ) ;
#53 = CALENDAR_DATE ( 2021, 17, 11 ) ;
#54 = CIRCLE ( 'NONE', #63, 3.000000000000000000 ) ;
#55 = EDGE_LOOP ( 'NONE', ( #104 ) ) ;
#56 = ADVANCED_FACE ( 'NONE', ( #168, #1 ), #189, .T. ) ;
#57 = AXIS2_PLACEMENT_3D ( 'NONE', #120, #221, #204 ) ;
#58 = VERTEX_POINT ( 'NONE', #127 ) ;
#59 = DIRECTION ( 'NONE',  ( 3.491481338843133355E-15, -1.224646799147353207E-16, 1.000000000000000000 ) ) ;
#60 = EDGE_CURVE ( 'NONE', #141, #141, #28, .T. ) ;
#61 = DIRECTION ( 'NONE',  ( -4.275831445896958607E-31, -1.000000000000000000, -1.224646799147353207E-16 ) ) ;
#62 = DIRECTION ( 'NONE',  ( 0.0000000000000000000, 1.000000000000000000, 0.0000000000000000000 ) ) ;
#63 = AXIS2_PLACEMENT_3D ( 'NONE', #213, #130, #7 ) ;
#64 = EDGE_CURVE ( 'NONE', #176, #176, #148, .T. ) ;
#65 = DIRECTION ( 'NONE',  ( 4.275831445896959482E-31, 1.000000000000000000, 1.224646799147353207E-16 ) ) ;
#66 = COORDINATED_UNIVERSAL_TIME_OFFSET ( 1, 0, .AHEAD. ) ;
#67 = PERSON_AND_ORGANIZATION_ROLE ( 'design_owner' ) ;
#68 = AXIS2_PLACEMENT_3D ( 'NONE', #39, #9, #115 ) ;
#69 = APPLICATION_PROTOCOL_DEFINITION ( 'international standard', 'config_control_design', 1994, #208 ) ;
#70 =( NAMED_UNIT ( * ) PLANE_ANGLE_UNIT ( ) SI_UNIT ( $, .RADIAN. ) );
#71 = CALENDAR_DATE ( 2021, 17, 11 ) ;
#72 = DIRECTION ( 'NONE',  ( 4.275831445896958607E-31, 1.000000000000000000, 1.224646799147353207E-16 ) ) ;
#73 = LOCAL_TIME ( 11, 13, 23.00000000000000000, #143 ) ;
#74 = EDGE_LOOP ( 'NONE', ( #125 ) ) ;
#75 = DIRECTION ( 'NONE',  ( 4.275831445896958607E-31, 1.000000000000000000, 1.224646799147353207E-16 ) ) ;
#76 = EDGE_LOOP ( 'NONE', ( #107 ) ) ;
#77 = PRODUCT_DEFINITION ( 'UNKNOWN', '', #105, #13 ) ;
#78 = DIRECTION ( 'NONE',  ( -4.275831445896958607E-31, -1.000000000000000000, -1.224646799147353207E-16 ) ) ;
#79 = DIRECTION ( 'NONE',  ( 0.0000000000000000000, 1.000000000000000000, 0.0000000000000000000 ) ) ;
#80 = FACE_BOUND ( 'NONE', #55, .T. ) ;
#81 = AXIS2_PLACEMENT_3D ( 'NONE', #152, #140, #216 ) ;
#82 = APPROVAL_ROLE ( '' ) ;
#83 = APPLICATION_PROTOCOL_DEFINITION ( 'international standard', 'config_control_design', 1994, #90 ) ;
#84 = PRODUCT_RELATED_PRODUCT_CATEGORY ( 'detail', '', ( #50 ) ) ;
#85 = COORDINATED_UNIVERSAL_TIME_OFFSET ( 1, 0, .AHEAD. ) ;
#86 = APPROVAL_STATUS ( 'not_yet_approved' ) ;
#87 = EDGE_LOOP ( 'NONE', ( #150 ) ) ;
#88 = AXIS2_PLACEMENT_3D ( 'NONE', #151, #153, #61 ) ;
#89 = EDGE_LOOP ( 'NONE', ( #149 ) ) ;
#90 = APPLICATION_CONTEXT ( 'configuration controlled 3d designs of mechanical parts and assemblies' ) ;
#91 = DIRECTION ( 'NONE',  ( 0.0000000000000000000, 1.000000000000000000, 0.0000000000000000000 ) ) ;
#92 = AXIS2_PLACEMENT_3D ( 'NONE', #5, #169, #72 ) ;
#93 = CARTESIAN_POINT ( 'NONE',  ( 1.990144363140586139E-13, -6.980486755139912911E-15, 57.00000000000000000 ) ) ;
#94 = MANIFOLD_SOLID_BREP ( 'Corps-Déplacer/Copier1[2]', #182 ) ;
#95 = FACE_OUTER_BOUND ( 'NONE', #74, .T. ) ;
#96 = VERTEX_POINT ( 'NONE', #154 ) ;
#97 = ADVANCED_FACE ( 'NONE', ( #173 ), #195, .T. ) ;
#98 = DIRECTION ( 'NONE',  ( 3.491481338843133355E-15, -1.217917285207545432E-16, 1.000000000000000000 ) ) ;
#99 = AXIS2_PLACEMENT_3D ( 'NONE', #22, #21, #91 ) ;
#100 = DATE_AND_TIME ( #47, #6 ) ;
#101 = CC_DESIGN_APPROVAL ( #185, ( #117 ) ) ;
#102 = DATE_AND_TIME ( #180, #188 ) ;
#103 = PERSON_AND_ORGANIZATION ( #108, #109 ) ;
#104 = ORIENTED_EDGE ( 'NONE', *, *, #172, .T. ) ;
#105 = PRODUCT_DEFINITION_FORMATION_WITH_SPECIFIED_SOURCE ( 'ANY', '', #50, .NOT_KNOWN. ) ;
#106 = ORIENTED_EDGE ( 'NONE', *, *, #177, .T. ) ;
#107 = ORIENTED_EDGE ( 'NONE', *, *, #137, .F. ) ;
#108 = PERSON ( 'UNSPECIFIED', 'UNSPECIFIED', 'UNSPECIFIED', ('UNSPECIFIED'), ('UNSPECIFIED'), ('UNSPECIFIED') ) ;
#109 = ORGANIZATION ( 'UNSPECIFIED', 'UNSPECIFIED', '' ) ;
#110 = CARTESIAN_POINT ( 'NONE',  ( 6.982962677686239100E-16, -3.000000000000000000, 0.1999999999999992062 ) ) ;
#111 = CARTESIAN_POINT ( 'NONE',  ( 0.0000000000000000000, 0.0000000000000000000, 0.0000000000000000000 ) ) ;
#112 = APPROVAL_PERSON_ORGANIZATION ( #158, #46, #118 ) ;
#113 = DIRECTION ( 'NONE',  ( 4.275831445896959482E-31, 1.000000000000000000, 1.224646799147353207E-16 ) ) ;
#114 = CARTESIAN_POINT ( 'NONE',  ( 1.972686956446370283E-13, -6.919254415182544548E-15, 56.49999999999999289 ) ) ;
#115 = DIRECTION ( 'NONE',  ( 0.0000000000000000000, 1.000000000000000000, 0.0000000000000000000 ) ) ;
#116 = DATE_TIME_ROLE ( 'classification_date' ) ;
#117 = SECURITY_CLASSIFICATION ( '', '', #52 ) ;
#118 = APPROVAL_ROLE ( '' ) ;
#119 = CLOSED_SHELL ( 'NONE', ( #194, #56, #210, #16 ) ) ;
#120 = CARTESIAN_POINT ( 'NONE',  ( 0.0000000000000000000, 0.0000000000000000000, 0.0000000000000000000 ) ) ;
#121 = ORIENTED_EDGE ( 'NONE', *, *, #60, .T. ) ;
#122 = AXIS2_PLACEMENT_3D ( 'NONE', #45, #175, #62 ) ;
#123 = EDGE_CURVE ( 'NONE', #212, #212, #167, .T. ) ;
#124 = EDGE_LOOP ( 'NONE', ( #166 ) ) ;
#125 = ORIENTED_EDGE ( 'NONE', *, *, #177, .F. ) ;
#126 = CC_DESIGN_PERSON_AND_ORGANIZATION_ASSIGNMENT ( #15, #160, ( #105 ) ) ;
#127 = CARTESIAN_POINT ( 'NONE',  ( -2.381307865191714518E-30, -2.799999999999998934, -6.820336797162252252E-16 ) ) ;
#128 = FACE_OUTER_BOUND ( 'NONE', #32, .T. ) ;
#129 = FACE_OUTER_BOUND ( 'NONE', #223, .T. ) ;
#130 = DIRECTION ( 'NONE',  ( 3.491481338843133355E-15, -1.217917285207545432E-16, 1.000000000000000000 ) ) ;
#131 = CALENDAR_DATE ( 2021, 17, 11 ) ;
#132 = AXIS2_PLACEMENT_3D ( 'NONE', #93, #27, #198 ) ;
#133 = SHAPE_DEFINITION_REPRESENTATION ( #14, #25 ) ;
#134 = FACE_OUTER_BOUND ( 'NONE', #124, .T. ) ;
#135 = PLANE ( 'NONE',  #92 ) ;
#136 = CONICAL_SURFACE ( 'NONE', #147, 3.000000000000000000, 0.7853981633974509435 ) ;
#137 = EDGE_CURVE ( 'NONE', #96, #96, #211, .T. ) ;
#138 = FACE_OUTER_BOUND ( 'NONE', #76, .T. ) ;
#139 = DIRECTION ( 'NONE',  ( -4.172848212839010723E-31, -1.000000000000000000, -1.174552353525963055E-16 ) ) ;
#140 = DIRECTION ( 'NONE',  ( 3.491481338843133355E-15, -1.217917285207545432E-16, 1.000000000000000000 ) ) ;
#141 = VERTEX_POINT ( 'NONE', #44 ) ;
#142 = LOCAL_TIME ( 11, 13, 23.00000000000000000, #222 ) ;
#143 = COORDINATED_UNIVERSAL_TIME_OFFSET ( 1, 0, .AHEAD. ) ;
#144 = PERSON_AND_ORGANIZATION ( #108, #109 ) ;
#145 = PERSON_AND_ORGANIZATION ( #108, #109 ) ;
#146 = PERSON_AND_ORGANIZATION ( #108, #109 ) ;
#147 = AXIS2_PLACEMENT_3D ( 'NONE', #40, #98, #139 ) ;
#148 = CIRCLE ( 'NONE', #122, 3.000000000000000444 ) ;
#149 = ORIENTED_EDGE ( 'NONE', *, *, #137, .T. ) ;
#150 = ORIENTED_EDGE ( 'NONE', *, *, #64, .F. ) ;
#151 = CARTESIAN_POINT ( 'NONE',  ( 5.237222008264700033E-14, 2.249639673992784222E-32, 15.00000000000000000 ) ) ;
#152 = CARTESIAN_POINT ( 'NONE',  ( -1.190653932595857434E-30, 4.153303038100488083E-32, -3.410168398581126126E-16 ) ) ;
#153 = DIRECTION ( 'NONE',  ( 3.491481338843133355E-15, -1.224646799147353207E-16, 1.000000000000000000 ) ) ;
#154 = CARTESIAN_POINT ( 'NONE',  ( 1.972686956446370283E-13, 2.999999999999992895, 56.49999999999999289 ) ) ;
#155 = CC_DESIGN_PERSON_AND_ORGANIZATION_ASSIGNMENT ( #145, #203, ( #105 ) ) ;
#156 = DIRECTION ( 'NONE',  ( -3.491481338843133355E-15, 1.224646799147353207E-16, -1.000000000000000000 ) ) ;
#157 = DATE_AND_TIME ( #71, #142 ) ;
#158 = PERSON_AND_ORGANIZATION ( #108, #109 ) ;
#159 = UNCERTAINTY_MEASURE_WITH_UNIT (LENGTH_MEASURE( 1.000000000000000082E-05 ), #12, 'distance_accuracy_value', 'NONE');
#160 = PERSON_AND_ORGANIZATION_ROLE ( 'creator' ) ;
#161 = CC_DESIGN_APPROVAL ( #19, ( #77 ) ) ;
#162 = ADVANCED_FACE ( 'NONE', ( #80, #95 ), #136, .T. ) ;
#163 = PERSON_AND_ORGANIZATION_ROLE ( 'classification_officer' ) ;
#164 = APPROVAL_STATUS ( 'not_yet_approved' ) ;
#165 = MANIFOLD_SOLID_BREP ( 'Corps-Déplacer/Copier1[1]', #119 ) ;
#166 = ORIENTED_EDGE ( 'NONE', *, *, #172, .F. ) ;
#167 = CIRCLE ( 'NONE', #99, 3.000000000000000444 ) ;
#168 = FACE_OUTER_BOUND ( 'NONE', #89, .T. ) ;
#169 = DIRECTION ( 'NONE',  ( -3.491481338843133355E-15, 1.224646799147353207E-16, -1.000000000000000000 ) ) ;
#170 = ORIENTED_EDGE ( 'NONE', *, *, #60, .F. ) ;
#171 = CARTESIAN_POINT ( 'NONE',  ( 5.237222008264700033E-14, 2.249639673992784222E-32, 15.00000000000000000 ) ) ;
#172 = EDGE_CURVE ( 'NONE', #58, #58, #43, .T. ) ;
#173 = FACE_OUTER_BOUND ( 'NONE', #87, .T. ) ;
#174 = AXIS2_PLACEMENT_3D ( 'NONE', #114, #24, #79 ) ;
#175 = DIRECTION ( 'NONE',  ( -3.491481338843133355E-15, 1.224646799147353207E-16, -1.000000000000000000 ) ) ;
#176 = VERTEX_POINT ( 'NONE', #26 ) ;
#177 = EDGE_CURVE ( 'NONE', #193, #193, #54, .T. ) ;
#178 = CARTESIAN_POINT ( 'NONE',  ( 0.0000000000000000000, 0.0000000000000000000, 0.0000000000000000000 ) ) ;
#179 = AXIS2_PLACEMENT_3D ( 'NONE', #171, #59, #78 ) ;
#180 = CALENDAR_DATE ( 2021, 17, 11 ) ;
#181 = APPROVAL_ROLE ( '' ) ;
#182 = CLOSED_SHELL ( 'NONE', ( #201, #97, #162, #41 ) ) ;
#183 = PERSON_AND_ORGANIZATION_ROLE ( 'creator' ) ;
#184 =( NAMED_UNIT ( * ) SI_UNIT ( $, .STERADIAN. ) SOLID_ANGLE_UNIT ( ) );
#185 = APPROVAL ( #164, 'UNSPECIFIED' ) ;
#186 = ORIENTED_EDGE ( 'NONE', *, *, #123, .T. ) ;
#187 = DIRECTION ( 'NONE',  ( -3.491481338843133355E-15, 1.224646799147353207E-16, -1.000000000000000000 ) ) ;
#188 = LOCAL_TIME ( 11, 13, 23.00000000000000000, #49 ) ;
#189 = CYLINDRICAL_SURFACE ( 'NONE', #219, 3.000000000000000000 ) ;
#190 = CC_DESIGN_DATE_AND_TIME_ASSIGNMENT ( #100, #31, ( #77 ) ) ;
#191 = EDGE_LOOP ( 'NONE', ( #106 ) ) ;
#192 = CC_DESIGN_SECURITY_CLASSIFICATION ( #117, ( #105 ) ) ;
#193 = VERTEX_POINT ( 'NONE', #110 ) ;
#194 = ADVANCED_FACE ( 'NONE', ( #128 ), #42, .F. ) ;
#195 = PLANE ( 'NONE',  #179 ) ;
#196 = LOCAL_TIME ( 11, 13, 23.00000000000000000, #66 ) ;
#197 = FACE_OUTER_BOUND ( 'NONE', #191, .T. ) ;
#198 = DIRECTION ( 'NONE',  ( 0.0000000000000000000, 1.000000000000000000, 0.0000000000000000000 ) ) ;
#199 = DATE_AND_TIME ( #131, #73 ) ;
#200 = MECHANICAL_CONTEXT ( 'NONE', #90, 'mechanical' ) ;
#201 = ADVANCED_FACE ( 'NONE', ( #129, #197 ), #8, .T. ) ;
#202 = PERSON_AND_ORGANIZATION ( #108, #109 ) ;
#203 = PERSON_AND_ORGANIZATION_ROLE ( 'design_supplier' ) ;
#204 = DIRECTION ( 'NONE',  ( 1.000000000000000000, 0.0000000000000000000, 0.0000000000000000000 ) ) ;
#205 = CC_DESIGN_PERSON_AND_ORGANIZATION_ASSIGNMENT ( #202, #67, ( #50 ) ) ;
#206 = CARTESIAN_POINT ( 'NONE',  ( -6.413747168845438786E-31, 2.249639673992786412E-32, -1.836970198721029934E-16 ) ) ;
#207 = FACE_OUTER_BOUND ( 'NONE', #38, .T. ) ;
#208 = APPLICATION_CONTEXT ( 'configuration controlled 3d designs of mechanical parts and assemblies' ) ;
#209 = CARTESIAN_POINT ( 'NONE',  ( 5.237222008264700033E-14, 2.999999999999998668, 15.00000000000000000 ) ) ;
#210 = ADVANCED_FACE ( 'NONE', ( #11, #138 ), #10, .T. ) ;
#211 = CIRCLE ( 'NONE', #68, 2.999999999999999556 ) ;
#212 = VERTEX_POINT ( 'NONE', #209 ) ;
#213 = CARTESIAN_POINT ( 'NONE',  ( 6.982962677686250933E-16, -2.435834570415085380E-17, 0.1999999999999995393 ) ) ;
#214 = DIRECTION ( 'NONE',  ( -3.491481338843133355E-15, 1.224646799147353207E-16, -1.000000000000000000 ) ) ;
#215 =( GEOMETRIC_REPRESENTATION_CONTEXT ( 3 ) GLOBAL_UNCERTAINTY_ASSIGNED_CONTEXT ( ( #159 ) ) GLOBAL_UNIT_ASSIGNED_CONTEXT ( ( #12, #70, #184 ) ) REPRESENTATION_CONTEXT ( 'NONE', 'WORKASPACE' ) );
#216 = DIRECTION ( 'NONE',  ( -4.252335473556634068E-31, -1.000000000000000000, -1.217917285207545432E-16 ) ) ;
#217 = APPROVAL_DATE_TIME ( #102, #19 ) ;
#218 = APPROVAL_STATUS ( 'not_yet_approved' ) ;
#219 = AXIS2_PLACEMENT_3D ( 'NONE', #178, #214, #113 ) ;
#220 = DATE_AND_TIME ( #53, #196 ) ;
#221 = DIRECTION ( 'NONE',  ( 0.0000000000000000000, 0.0000000000000000000, 1.000000000000000000 ) ) ;
#222 = COORDINATED_UNIVERSAL_TIME_OFFSET ( 1, 0, .AHEAD. ) ;
#223 = EDGE_LOOP ( 'NONE', ( #20 ) ) ;
ENDSEC;
END-ISO-10303-21;
