ISO-10303-21;
HEADER;
FILE_DESCRIPTION (( 'STEP AP203' ),
    '1' );
FILE_NAME ('45792.step',
    '2021-09-02T13:22:57',
    ( '' ),
    ( '' ),
    'SwSTEP 2.0',
    'SolidWorks 2019',
    '' );
FILE_SCHEMA (( 'CONFIG_CONTROL_DESIGN' ));
ENDSEC;

DATA;
#1 = LOCAL_TIME ( 15, 22, 57.00000000000000000, #279 ) ;
#2 = EDGE_CURVE ( 'NONE', #68, #55, #109, .T. ) ;
#3 = ORIENTED_EDGE ( 'NONE', *, *, #236, .T. ) ;
#4 = ORIENTED_EDGE ( 'NONE', *, *, #318, .T. ) ;
#5 = VECTOR ( 'NONE', #13, 1000.000000000000000 ) ;
#6 = DIRECTION ( 'NONE',  ( -3.491481338843133355E-15, 1.224646799147353454E-16, -1.000000000000000000 ) ) ;
#7 = ADVANCED_FACE ( 'NONE', ( #74 ), #280, .F. ) ;
#8 = ORIENTED_EDGE ( 'NONE', *, *, #223, .F. ) ;
#9 = CC_DESIGN_SECURITY_CLASSIFICATION ( #161, ( #194 ) ) ;
#10 = DIRECTION ( 'NONE',  ( 3.491481338843133355E-15, -1.224646799147353454E-16, 1.000000000000000000 ) ) ;
#11 = CARTESIAN_POINT ( 'NONE',  ( 4.085033166446466404E-13, -1.432836755002403758E-14, 117.0000000000000000 ) ) ;
#12 = LOCAL_TIME ( 15, 22, 57.00000000000000000, #300 ) ;
#13 = DIRECTION ( 'NONE',  ( -3.491481338843133355E-15, 1.224646799147353454E-16, -1.000000000000000000 ) ) ;
#14 = APPLICATION_CONTEXT ( 'configuration controlled 3d designs of mechanical parts and assemblies' ) ;
#15 = LINE ( 'NONE', #61, #140 ) ;
#16 = VECTOR ( 'NONE', #336, 1000.000000000000000 ) ;
#17 = EDGE_LOOP ( 'NONE', ( #4, #316 ) ) ;
#18 = EDGE_CURVE ( 'NONE', #202, #55, #306, .T. ) ;
#19 = DIRECTION ( 'NONE',  ( 3.950625526948183093E-31, 1.000000000000000000, 1.112002228190262924E-16 ) ) ;
#20 = EDGE_CURVE ( 'NONE', #215, #123, #157, .T. ) ;
#21 = FACE_OUTER_BOUND ( 'NONE', #243, .T. ) ;
#22 = SECURITY_CLASSIFICATION_LEVEL ( 'unclassified' ) ;
#23 = VERTEX_POINT ( 'NONE', #231 ) ;
#24 = CC_DESIGN_PERSON_AND_ORGANIZATION_ASSIGNMENT ( #49, #329, ( #210 ) ) ;
#25 = PERSON_AND_ORGANIZATION ( #30, #72 ) ;
#26 = AXIS2_PLACEMENT_3D ( 'NONE', #298, #270, #292 ) ;
#27 = VECTOR ( 'NONE', #307, 1000.000000000000114 ) ;
#28 = VERTEX_POINT ( 'NONE', #70 ) ;
#29 = VECTOR ( 'NONE', #71, 1000.000000000000000 ) ;
#30 = PERSON ( 'UNSPECIFIED', 'UNSPECIFIED', 'UNSPECIFIED', ('UNSPECIFIED'), ('UNSPECIFIED'), ('UNSPECIFIED') ) ;
#31 = ORIENTED_EDGE ( 'NONE', *, *, #163, .F. ) ;
#32 = CYLINDRICAL_SURFACE ( 'NONE', #133, 3.899999999999997691 ) ;
#33 = DIRECTION ( 'NONE',  ( -3.491481338843133355E-15, 1.224646799147353454E-16, -1.000000000000000000 ) ) ;
#34 = CARTESIAN_POINT ( 'NONE',  ( 3.342632282450709174E-13, -3.900000000000021672, 116.2000000000000171 ) ) ;
#35 = LINE ( 'NONE', #91, #5 ) ;
#36 = FACE_OUTER_BOUND ( 'NONE', #289, .T. ) ;
#37 = AXIS2_PLACEMENT_3D ( 'NONE', #197, #224, #221 ) ;
#38 = AXIS2_PLACEMENT_3D ( 'NONE', #247, #33, #328 ) ;
#39 = ORIENTED_EDGE ( 'NONE', *, *, #79, .T. ) ;
#40 = ADVANCED_FACE ( 'NONE', ( #284 ), #178, .T. ) ;
#41 = ORIENTED_EDGE ( 'NONE', *, *, #64, .T. ) ;
#42 = CARTESIAN_POINT ( 'NONE',  ( 4.057101315735721337E-13, 3.899999999999992806, 116.2000000000000171 ) ) ;
#43 = EDGE_CURVE ( 'NONE', #23, #111, #164, .T. ) ;
#44 = CARTESIAN_POINT ( 'NONE',  ( 8.181785190463869195E-15, -2.869783931920642944E-16, 2.343356414207506955 ) ) ;
#45 = DIRECTION ( 'NONE',  ( -3.491481338843133355E-15, 1.224646799147353454E-16, -1.000000000000000000 ) ) ;
#46 = APPLICATION_PROTOCOL_DEFINITION ( 'international standard', 'config_control_design', 1994, #14 ) ;
#47 = DIRECTION ( 'NONE',  ( 4.275831445896959482E-31, 1.000000000000000000, 1.224646799147353207E-16 ) ) ;
#48 = CC_DESIGN_PERSON_AND_ORGANIZATION_ASSIGNMENT ( #25, #253, ( #281 ) ) ;
#49 = PERSON_AND_ORGANIZATION ( #30, #72 ) ;
#50 = CARTESIAN_POINT ( 'NONE',  ( 8.181785190463867617E-15, -3.899999999999993694, 2.343356414207506511 ) ) ;
#51 = AXIS2_PLACEMENT_3D ( 'NONE', #142, #10, #326 ) ;
#52 = EDGE_CURVE ( 'NONE', #167, #68, #182, .T. ) ;
#53 = LOCAL_TIME ( 15, 22, 57.00000000000000000, #185 ) ;
#54 = ORIENTED_EDGE ( 'NONE', *, *, #43, .F. ) ;
#55 = VERTEX_POINT ( 'NONE', #226 ) ;
#56 = DIRECTION ( 'NONE',  ( 1.798245827342160317E-15, -0.8571673007021098911, 0.5150380749100582634 ) ) ;
#57 = EDGE_LOOP ( 'NONE', ( #299, #149, #81, #291 ) ) ;
#58 = CARTESIAN_POINT ( 'NONE',  ( 1.354990550535166297E-13, -3.900000000000011013, 75.00000000000000000 ) ) ;
#59 = FACE_OUTER_BOUND ( 'NONE', #162, .T. ) ;
#60 = DESIGN_CONTEXT ( 'detailed design', #14, 'design' ) ;
#61 = CARTESIAN_POINT ( 'NONE',  ( 8.181785190463867617E-15, -3.899999999999993694, 2.343356414207506511 ) ) ;
#62 = APPROVAL ( #213, 'UNSPECIFIED' ) ;
#63 = DIRECTION ( 'NONE',  ( -3.491481338843133355E-15, 1.224646799147353454E-16, -1.000000000000000000 ) ) ;
#64 = EDGE_CURVE ( 'NONE', #167, #84, #282, .T. ) ;
#65 = ORIENTED_EDGE ( 'NONE', *, *, #18, .T. ) ;
#66 = CARTESIAN_POINT ( 'NONE',  ( 2.618611004132350143E-13, -9.184850993605150311E-15, 75.00000000000000000 ) ) ;
#67 = AXIS2_PLACEMENT_3D ( 'NONE', #195, #115, #220 ) ;
#68 = VERTEX_POINT ( 'NONE', #50 ) ;
#69 = DATE_TIME_ROLE ( 'creation_date' ) ;
#70 = CARTESIAN_POINT ( 'NONE',  ( 2.618611004132350143E-13, 3.899999999999992806, 75.00000000000000000 ) ) ;
#71 = DIRECTION ( 'NONE',  ( -3.491481338843133355E-15, 1.224646799147353454E-16, -1.000000000000000000 ) ) ;
#72 = ORGANIZATION ( 'UNSPECIFIED', 'UNSPECIFIED', '' ) ;
#73 =( LENGTH_UNIT ( ) NAMED_UNIT ( * ) SI_UNIT ( .MILLI., .METRE. ) );
#74 = FACE_OUTER_BOUND ( 'NONE', #17, .T. ) ;
#75 = PERSON_AND_ORGANIZATION_ROLE ( 'classification_officer' ) ;
#76 = CARTESIAN_POINT ( 'NONE',  ( 4.088829571523822664E-13, -3.100000000000021405, 117.0000000000000000 ) ) ;
#77 = AXIS2_PLACEMENT_3D ( 'NONE', #334, #332, #208 ) ;
#78 = DATE_TIME_ROLE ( 'classification_date' ) ;
#79 = EDGE_CURVE ( 'NONE', #23, #215, #278, .T. ) ;
#80 = MANIFOLD_SOLID_BREP ( 'Corps-Déplacer/Copier1[1]', #188 ) ;
#81 = ORIENTED_EDGE ( 'NONE', *, *, #318, .F. ) ;
#82 = ADVANCED_FACE ( 'NONE', ( #95 ), #204, .F. ) ;
#83 = CIRCLE ( 'NONE', #242, 3.899999999999993250 ) ;
#84 = VERTEX_POINT ( 'NONE', #256 ) ;
#85 = ORIENTED_EDGE ( 'NONE', *, *, #283, .F. ) ;
#86 = CARTESIAN_POINT ( 'NONE',  ( 4.085033166446466404E-13, 3.099999999999992983, 117.0000000000000000 ) ) ;
#87 = DIRECTION ( 'NONE',  ( -3.491481338843133355E-15, 1.224646799147353454E-16, -1.000000000000000000 ) ) ;
#88 = CC_DESIGN_PERSON_AND_ORGANIZATION_ASSIGNMENT ( #209, #75, ( #161 ) ) ;
#89 = VECTOR ( 'NONE', #234, 1000.000000000000114 ) ;
#90 = DIRECTION ( 'NONE',  ( 4.275831445896959482E-31, 1.000000000000000000, 1.224646799147353207E-16 ) ) ;
#91 = CARTESIAN_POINT ( 'NONE',  ( 1.667574263899816116E-30, 3.900000000000004796, 4.776122516674683203E-16 ) ) ;
#92 = CYLINDRICAL_SURFACE ( 'NONE', #286, 3.900000000000004796 ) ;
#93 = CALENDAR_DATE ( 2021, 2, 9 ) ;
#94 = VECTOR ( 'NONE', #6, 1000.000000000000000 ) ;
#95 = FACE_OUTER_BOUND ( 'NONE', #108, .T. ) ;
#96 = DATE_AND_TIME ( #331, #135 ) ;
#97 = DIRECTION ( 'NONE',  ( 0.0000000000000000000, 1.000000000000000000, 0.0000000000000000000 ) ) ;
#98 = PERSON_AND_ORGANIZATION_ROLE ( 'creator' ) ;
#99 = CARTESIAN_POINT ( 'NONE',  ( 2.618611004132350143E-13, 2.924531576190611388E-32, 75.00000000000000000 ) ) ;
#100 =( GEOMETRIC_REPRESENTATION_CONTEXT ( 3 ) GLOBAL_UNCERTAINTY_ASSIGNED_CONTEXT ( ( #116 ) ) GLOBAL_UNIT_ASSIGNED_CONTEXT ( ( #73, #128, #230 ) ) REPRESENTATION_CONTEXT ( 'NONE', 'WORKASPACE' ) );
#101 = CARTESIAN_POINT ( 'NONE',  ( 4.085033166446466404E-13, -1.432836755002403758E-14, 117.0000000000000000 ) ) ;
#102 = DIRECTION ( 'NONE',  ( 1.903218546456022717E-15, 0.8571673007021097801, 0.5150380749100585964 ) ) ;
#103 = CC_DESIGN_DATE_AND_TIME_ASSIGNMENT ( #160, #78, ( #161 ) ) ;
#104 = ADVANCED_FACE ( 'NONE', ( #21 ), #189, .T. ) ;
#105 = APPROVAL_DATE_TIME ( #96, #263 ) ;
#106 = EDGE_CURVE ( 'NONE', #84, #167, #303, .T. ) ;
#107 = ADVANCED_BREP_SHAPE_REPRESENTATION ( '45792', ( #80, #191, #288 ), #100 ) ;
#108 = EDGE_LOOP ( 'NONE', ( #290, #54 ) ) ;
#109 = CIRCLE ( 'NONE', #183, 3.899999999999993250 ) ;
#110 = AXIS2_PLACEMENT_3D ( 'NONE', #271, #245, #272 ) ;
#111 = VERTEX_POINT ( 'NONE', #86 ) ;
#112 = AXIS2_PLACEMENT_3D ( 'NONE', #129, #87, #172 ) ;
#113 = ADVANCED_FACE ( 'NONE', ( #249 ), #92, .T. ) ;
#114 = DIRECTION ( 'NONE',  ( -3.491481338843133355E-15, 1.224646799147353454E-16, -1.000000000000000000 ) ) ;
#115 = DIRECTION ( 'NONE',  ( -3.491481338843133355E-15, 1.224646799147353454E-16, -1.000000000000000000 ) ) ;
#116 = UNCERTAINTY_MEASURE_WITH_UNIT (LENGTH_MEASURE( 1.000000000000000082E-05 ), #73, 'distance_accuracy_value', 'NONE');
#117 = AXIS2_PLACEMENT_3D ( 'NONE', #101, #176, #259 ) ;
#118 = DIRECTION ( 'NONE',  ( -4.275831445896959482E-31, -1.000000000000000000, -1.224646799147353454E-16 ) ) ;
#119 = CARTESIAN_POINT ( 'NONE',  ( 0.0000000000000000000, 0.0000000000000000000, 0.0000000000000000000 ) ) ;
#120 = CC_DESIGN_APPROVAL ( #62, ( #161 ) ) ;
#121 = VECTOR ( 'NONE', #102, 999.9999999999998863 ) ;
#122 = FACE_OUTER_BOUND ( 'NONE', #315, .T. ) ;
#123 = VERTEX_POINT ( 'NONE', #297 ) ;
#124 = DIRECTION ( 'NONE',  ( 1.000000000000000000, 0.0000000000000000000, 0.0000000000000000000 ) ) ;
#125 = DIRECTION ( 'NONE',  ( 3.491481338843133355E-15, -1.224646799147353454E-16, 1.000000000000000000 ) ) ;
#126 = APPROVAL_STATUS ( 'not_yet_approved' ) ;
#127 = CARTESIAN_POINT ( 'NONE',  ( 4.085033166446466404E-13, 2.324627663125864239E-32, 117.0000000000000000 ) ) ;
#128 =( NAMED_UNIT ( * ) PLANE_ANGLE_UNIT ( ) SI_UNIT ( $, .RADIAN. ) );
#129 = CARTESIAN_POINT ( 'NONE',  ( 4.085033166446466404E-13, -1.432836755002403758E-14, 117.0000000000000000 ) ) ;
#130 = CARTESIAN_POINT ( 'NONE',  ( 0.0000000000000000000, 0.0000000000000000000, 0.0000000000000000000 ) ) ;
#131 = CARTESIAN_POINT ( 'NONE',  ( 4.776122516674666439E-16, -3.900000000000004796, -4.776122516674699966E-16 ) ) ;
#132 = PRODUCT_DEFINITION_SHAPE ( 'NONE', 'NONE',  #210 ) ;
#133 = AXIS2_PLACEMENT_3D ( 'NONE', #322, #114, #143 ) ;
#134 = CALENDAR_DATE ( 2021, 2, 9 ) ;
#135 = LOCAL_TIME ( 15, 22, 57.00000000000000000, #335 ) ;
#136 = ORIENTED_EDGE ( 'NONE', *, *, #79, .F. ) ;
#137 = EDGE_CURVE ( 'NONE', #111, #23, #302, .T. ) ;
#138 = ORIENTED_EDGE ( 'NONE', *, *, #295, .T. ) ;
#139 = DIRECTION ( 'NONE',  ( -3.491481338843133355E-15, 1.224646799147353454E-16, -1.000000000000000000 ) ) ;
#140 = VECTOR ( 'NONE', #56, 1000.000000000000000 ) ;
#141 = ORIENTED_EDGE ( 'NONE', *, *, #137, .T. ) ;
#142 = CARTESIAN_POINT ( 'NONE',  ( 8.181785190463869195E-15, -2.869783931920642944E-16, 2.343356414207506955 ) ) ;
#143 = DIRECTION ( 'NONE',  ( 4.275831445896958607E-31, 1.000000000000000000, 1.224646799147353700E-16 ) ) ;
#144 = LOCAL_TIME ( 15, 22, 57.00000000000000000, #235 ) ;
#145 = FACE_OUTER_BOUND ( 'NONE', #265, .T. ) ;
#146 = DIRECTION ( 'NONE',  ( 3.491481338843133355E-15, -1.224646799147353454E-16, 1.000000000000000000 ) ) ;
#147 = ORIENTED_EDGE ( 'NONE', *, *, #168, .F. ) ;
#148 = DIRECTION ( 'NONE',  ( -3.491481338843133355E-15, 1.224646799147353454E-16, -1.000000000000000000 ) ) ;
#149 = ORIENTED_EDGE ( 'NONE', *, *, #20, .T. ) ;
#150 = DIRECTION ( 'NONE',  ( 0.0000000000000000000, 0.0000000000000000000, 1.000000000000000000 ) ) ;
#151 = CC_DESIGN_APPROVAL ( #232, ( #210 ) ) ;
#152 = ORIENTED_EDGE ( 'NONE', *, *, #64, .F. ) ;
#153 = CC_DESIGN_PERSON_AND_ORGANIZATION_ASSIGNMENT ( #158, #255, ( #194 ) ) ;
#154 = DATE_AND_TIME ( #179, #144 ) ;
#155 = DIRECTION ( 'NONE',  ( 4.275831445896959482E-31, 1.000000000000000000, 1.224646799147353454E-16 ) ) ;
#156 = DIRECTION ( 'NONE',  ( 0.0000000000000000000, 1.000000000000000000, 0.0000000000000000000 ) ) ;
#157 = LINE ( 'NONE', #131, #29 ) ;
#158 = PERSON_AND_ORGANIZATION ( #30, #72 ) ;
#159 = CONICAL_SURFACE ( 'NONE', #110, 3.899999999999993250, 1.029744258676649649 ) ;
#160 = DATE_AND_TIME ( #313, #12 ) ;
#161 = SECURITY_CLASSIFICATION ( '', '', #22 ) ;
#162 = EDGE_LOOP ( 'NONE', ( #190, #41, #192, #214 ) ) ;
#163 = EDGE_CURVE ( 'NONE', #55, #68, #83, .T. ) ;
#164 = CIRCLE ( 'NONE', #77, 3.100000000000007194 ) ;
#165 = ORIENTED_EDGE ( 'NONE', *, *, #295, .F. ) ;
#166 = DIRECTION ( 'NONE',  ( 3.950625526948183093E-31, 1.000000000000000000, 1.112002228190262924E-16 ) ) ;
#167 = VERTEX_POINT ( 'NONE', #58 ) ;
#168 = EDGE_CURVE ( 'NONE', #84, #55, #241, .T. ) ;
#169 = LINE ( 'NONE', #268, #27 ) ;
#170 = AXIS2_PLACEMENT_3D ( 'NONE', #127, #45, #155 ) ;
#171 = CARTESIAN_POINT ( 'NONE',  ( 2.618611004132350143E-13, 2.924531576190611388E-32, 75.00000000000000000 ) ) ;
#172 = DIRECTION ( 'NONE',  ( 0.0000000000000000000, 1.000000000000000000, 0.0000000000000000000 ) ) ;
#173 = CYLINDRICAL_SURFACE ( 'NONE', #274, 3.899999999999997691 ) ;
#174 = ORIENTED_EDGE ( 'NONE', *, *, #251, .F. ) ;
#175 = CIRCLE ( 'NONE', #26, 3.900000000000007017 ) ;
#176 = DIRECTION ( 'NONE',  ( -3.491481338843133355E-15, 1.224646799147353454E-16, -1.000000000000000000 ) ) ;
#177 = ADVANCED_FACE ( 'NONE', ( #145 ), #317, .T. ) ;
#178 = CYLINDRICAL_SURFACE ( 'NONE', #311, 3.900000000000004796 ) ;
#179 = CALENDAR_DATE ( 2021, 2, 9 ) ;
#180 = APPROVAL_PERSON_ORGANIZATION ( #333, #232, #257 ) ;
#181 = DIRECTION ( 'NONE',  ( -3.491481338843133355E-15, 1.224646799147353454E-16, -1.000000000000000000 ) ) ;
#182 = LINE ( 'NONE', #310, #16 ) ;
#183 = AXIS2_PLACEMENT_3D ( 'NONE', #44, #254, #19 ) ;
#184 = EDGE_LOOP ( 'NONE', ( #198, #308, #3, #85 ) ) ;
#185 = COORDINATED_UNIVERSAL_TIME_OFFSET ( 1, 0, .AHEAD. ) ;
#186 = AXIS2_PLACEMENT_3D ( 'NONE', #11, #139, #199 ) ;
#187 = PRODUCT_RELATED_PRODUCT_CATEGORY ( 'detail', '', ( #281 ) ) ;
#188 = CLOSED_SHELL ( 'NONE', ( #321, #40, #7, #113, #104, #82 ) ) ;
#189 = CONICAL_SURFACE ( 'NONE', #112, 3.100000000000007194, 0.7853981633974512766 ) ;
#190 = ORIENTED_EDGE ( 'NONE', *, *, #52, .F. ) ;
#191 = MANIFOLD_SOLID_BREP ( 'Corps-Déplacer/Copier1[2]', #216 ) ;
#192 = ORIENTED_EDGE ( 'NONE', *, *, #168, .T. ) ;
#193 = CARTESIAN_POINT ( 'NONE',  ( 1.667574263899812963E-30, 3.899999999999997691, 4.776122516674676300E-16 ) ) ;
#194 = PRODUCT_DEFINITION_FORMATION_WITH_SPECIFIED_SOURCE ( 'ANY', '', #281, .NOT_KNOWN. ) ;
#195 = CARTESIAN_POINT ( 'NONE',  ( 2.618611004132350143E-13, -9.184850993605150311E-15, 75.00000000000000000 ) ) ;
#196 = CARTESIAN_POINT ( 'NONE',  ( 0.0000000000000000000, 0.0000000000000000000, 0.0000000000000000000 ) ) ;
#197 = CARTESIAN_POINT ( 'NONE',  ( 4.057101315735721337E-13, -1.423039580609224757E-14, 116.2000000000000171 ) ) ;
#198 = ORIENTED_EDGE ( 'NONE', *, *, #20, .F. ) ;
#199 = DIRECTION ( 'NONE',  ( 0.0000000000000000000, 1.000000000000000000, 0.0000000000000000000 ) ) ;
#200 = AXIS2_PLACEMENT_3D ( 'NONE', #171, #146, #118 ) ;
#201 = DATE_AND_TIME ( #93, #1 ) ;
#202 = VERTEX_POINT ( 'NONE', #196 ) ;
#203 = PERSON_AND_ORGANIZATION ( #30, #72 ) ;
#204 = PLANE ( 'NONE',  #170 ) ;
#205 = APPLICATION_CONTEXT ( 'configuration controlled 3d designs of mechanical parts and assemblies' ) ;
#206 = FACE_OUTER_BOUND ( 'NONE', #258, .T. ) ;
#207 = APPROVAL_PERSON_ORGANIZATION ( #312, #62, #212 ) ;
#208 = DIRECTION ( 'NONE',  ( 0.0000000000000000000, 1.000000000000000000, 0.0000000000000000000 ) ) ;
#209 = PERSON_AND_ORGANIZATION ( #30, #72 ) ;
#210 = PRODUCT_DEFINITION ( 'UNKNOWN', '', #194, #60 ) ;
#211 = CARTESIAN_POINT ( 'NONE',  ( 0.0000000000000000000, 0.0000000000000000000, 0.0000000000000000000 ) ) ;
#212 = APPROVAL_ROLE ( '' ) ;
#213 = APPROVAL_STATUS ( 'not_yet_approved' ) ;
#214 = ORIENTED_EDGE ( 'NONE', *, *, #2, .F. ) ;
#215 = VERTEX_POINT ( 'NONE', #34 ) ;
#216 = CLOSED_SHELL ( 'NONE', ( #239, #177, #227, #248, #287 ) ) ;
#217 = CIRCLE ( 'NONE', #67, 3.900000000000002132 ) ;
#218 = ORIENTED_EDGE ( 'NONE', *, *, #223, .T. ) ;
#219 = CARTESIAN_POINT ( 'NONE',  ( 8.181785190463869195E-15, -2.869783931920642944E-16, 2.343356414207506955 ) ) ;
#220 = DIRECTION ( 'NONE',  ( 0.0000000000000000000, 1.000000000000000000, 0.0000000000000000000 ) ) ;
#221 = DIRECTION ( 'NONE',  ( 0.0000000000000000000, 1.000000000000000000, 0.0000000000000000000 ) ) ;
#222 = DIRECTION ( 'NONE',  ( 4.275831445896958607E-31, 1.000000000000000000, 1.224646799147353700E-16 ) ) ;
#223 = EDGE_CURVE ( 'NONE', #202, #68, #15, .T. ) ;
#224 = DIRECTION ( 'NONE',  ( -3.491481338843133355E-15, 1.224646799147353454E-16, -1.000000000000000000 ) ) ;
#225 = ORIENTED_EDGE ( 'NONE', *, *, #18, .F. ) ;
#226 = CARTESIAN_POINT ( 'NONE',  ( 8.659397442131338797E-15, 3.899999999999992806, 2.343356414207507399 ) ) ;
#227 = ADVANCED_FACE ( 'NONE', ( #122 ), #159, .T. ) ;
#228 = APPROVAL_STATUS ( 'not_yet_approved' ) ;
#229 = CARTESIAN_POINT ( 'NONE',  ( 8.659397442131338797E-15, 3.899999999999992806, 2.343356414207507399 ) ) ;
#230 =( NAMED_UNIT ( * ) SI_UNIT ( $, .STERADIAN. ) SOLID_ANGLE_UNIT ( ) );
#231 = CARTESIAN_POINT ( 'NONE',  ( 4.075353504888109222E-13, -3.100000000000021405, 117.0000000000000000 ) ) ;
#232 = APPROVAL ( #126, 'UNSPECIFIED' ) ;
#233 = PERSON_AND_ORGANIZATION ( #30, #72 ) ;
#234 = DIRECTION ( 'NONE',  ( -2.382254525458708792E-15, -0.7071067811865495711, -0.7071067811865455743 ) ) ;
#235 = COORDINATED_UNIVERSAL_TIME_OFFSET ( 1, 0, .AHEAD. ) ;
#236 = EDGE_CURVE ( 'NONE', #319, #28, #35, .T. ) ;
#237 = SHAPE_DEFINITION_REPRESENTATION ( #132, #107 ) ;
#238 = APPROVAL_PERSON_ORGANIZATION ( #233, #263, #337 ) ;
#239 = ADVANCED_FACE ( 'NONE', ( #266 ), #173, .T. ) ;
#240 = ORIENTED_EDGE ( 'NONE', *, *, #163, .T. ) ;
#241 = LINE ( 'NONE', #193, #94 ) ;
#242 = AXIS2_PLACEMENT_3D ( 'NONE', #219, #296, #166 ) ;
#243 = EDGE_LOOP ( 'NONE', ( #136, #273, #138, #174 ) ) ;
#244 = DIRECTION ( 'NONE',  ( -3.491481338843133355E-15, 1.224646799147353454E-16, -1.000000000000000000 ) ) ;
#245 = DIRECTION ( 'NONE',  ( 3.491481338843133355E-15, -1.224646799147353454E-16, 1.000000000000000000 ) ) ;
#246 = CONICAL_SURFACE ( 'NONE', #117, 3.100000000000007194, 0.7853981633974512766 ) ;
#247 = CARTESIAN_POINT ( 'NONE',  ( 2.618611004132350143E-13, -9.184850993605150311E-15, 75.00000000000000000 ) ) ;
#248 = ADVANCED_FACE ( 'NONE', ( #59 ), #32, .T. ) ;
#249 = FACE_OUTER_BOUND ( 'NONE', #184, .T. ) ;
#250 = ORIENTED_EDGE ( 'NONE', *, *, #106, .T. ) ;
#251 = EDGE_CURVE ( 'NONE', #215, #319, #261, .T. ) ;
#252 = ORIENTED_EDGE ( 'NONE', *, *, #2, .T. ) ;
#253 = PERSON_AND_ORGANIZATION_ROLE ( 'design_owner' ) ;
#254 = DIRECTION ( 'NONE',  ( -3.491481338843133355E-15, 1.224646799147353454E-16, -1.000000000000000000 ) ) ;
#255 = PERSON_AND_ORGANIZATION_ROLE ( 'design_supplier' ) ;
#256 = CARTESIAN_POINT ( 'NONE',  ( 2.618611004132350143E-13, 3.899999999999992806, 75.00000000000000000 ) ) ;
#257 = APPROVAL_ROLE ( '' ) ;
#258 = EDGE_LOOP ( 'NONE', ( #141, #39, #267, #165 ) ) ;
#259 = DIRECTION ( 'NONE',  ( 0.0000000000000000000, 1.000000000000000000, 0.0000000000000000000 ) ) ;
#260 = EDGE_CURVE ( 'NONE', #319, #215, #175, .T. ) ;
#261 = CIRCLE ( 'NONE', #37, 3.900000000000007017 ) ;
#262 = CIRCLE ( 'NONE', #293, 3.900000000000002132 ) ;
#263 = APPROVAL ( #228, 'UNSPECIFIED' ) ;
#264 = AXIS2_PLACEMENT_3D ( 'NONE', #99, #125, #305 ) ;
#265 = EDGE_LOOP ( 'NONE', ( #8, #65, #240 ) ) ;
#266 = FACE_OUTER_BOUND ( 'NONE', #301, .T. ) ;
#267 = ORIENTED_EDGE ( 'NONE', *, *, #260, .F. ) ;
#268 = CARTESIAN_POINT ( 'NONE',  ( 4.085033166446466404E-13, 3.099999999999992983, 117.0000000000000000 ) ) ;
#269 = CC_DESIGN_PERSON_AND_ORGANIZATION_ASSIGNMENT ( #203, #98, ( #194 ) ) ;
#270 = DIRECTION ( 'NONE',  ( -3.491481338843133355E-15, 1.224646799147353454E-16, -1.000000000000000000 ) ) ;
#271 = CARTESIAN_POINT ( 'NONE',  ( 8.181785190463869195E-15, -2.869783931920642944E-16, 2.343356414207506955 ) ) ;
#272 = DIRECTION ( 'NONE',  ( -3.950625526948183093E-31, -1.000000000000000000, -1.112002228190262924E-16 ) ) ;
#273 = ORIENTED_EDGE ( 'NONE', *, *, #43, .T. ) ;
#274 = AXIS2_PLACEMENT_3D ( 'NONE', #119, #244, #222 ) ;
#275 = ORIENTED_EDGE ( 'NONE', *, *, #106, .F. ) ;
#276 = MECHANICAL_CONTEXT ( 'NONE', #205, 'mechanical' ) ;
#277 = CARTESIAN_POINT ( 'NONE',  ( 2.618611004132350143E-13, -9.184850993605150311E-15, 75.00000000000000000 ) ) ;
#278 = LINE ( 'NONE', #76, #89 ) ;
#279 = COORDINATED_UNIVERSAL_TIME_OFFSET ( 1, 0, .AHEAD. ) ;
#280 = PLANE ( 'NONE',  #264 ) ;
#281 = PRODUCT ( '45792', '45792', '', ( #276 ) ) ;
#282 = CIRCLE ( 'NONE', #294, 3.900000000000002132 ) ;
#283 = EDGE_CURVE ( 'NONE', #123, #28, #217, .T. ) ;
#284 = FACE_OUTER_BOUND ( 'NONE', #57, .T. ) ;
#285 = DATE_AND_TIME ( #134, #53 ) ;
#286 = AXIS2_PLACEMENT_3D ( 'NONE', #324, #63, #90 ) ;
#287 = ADVANCED_FACE ( 'NONE', ( #36 ), #320, .T. ) ;
#288 = AXIS2_PLACEMENT_3D ( 'NONE', #130, #150, #124 ) ;
#289 = EDGE_LOOP ( 'NONE', ( #275, #152 ) ) ;
#290 = ORIENTED_EDGE ( 'NONE', *, *, #137, .F. ) ;
#291 = ORIENTED_EDGE ( 'NONE', *, *, #236, .F. ) ;
#292 = DIRECTION ( 'NONE',  ( 0.0000000000000000000, 1.000000000000000000, 0.0000000000000000000 ) ) ;
#293 = AXIS2_PLACEMENT_3D ( 'NONE', #66, #148, #156 ) ;
#294 = AXIS2_PLACEMENT_3D ( 'NONE', #277, #330, #97 ) ;
#295 = EDGE_CURVE ( 'NONE', #111, #319, #169, .T. ) ;
#296 = DIRECTION ( 'NONE',  ( -3.491481338843133355E-15, 1.224646799147353454E-16, -1.000000000000000000 ) ) ;
#297 = CARTESIAN_POINT ( 'NONE',  ( 3.342632282450709679E-13, -3.900000000000011013, 75.00000000000000000 ) ) ;
#298 = CARTESIAN_POINT ( 'NONE',  ( 4.057101315735721337E-13, -1.423039580609224757E-14, 116.2000000000000171 ) ) ;
#299 = ORIENTED_EDGE ( 'NONE', *, *, #260, .T. ) ;
#300 = COORDINATED_UNIVERSAL_TIME_OFFSET ( 1, 0, .AHEAD. ) ;
#301 = EDGE_LOOP ( 'NONE', ( #250, #327, #31, #147 ) ) ;
#302 = CIRCLE ( 'NONE', #186, 3.100000000000007194 ) ;
#303 = CIRCLE ( 'NONE', #38, 3.900000000000002132 ) ;
#304 = APPLICATION_PROTOCOL_DEFINITION ( 'international standard', 'config_control_design', 1994, #205 ) ;
#305 = DIRECTION ( 'NONE',  ( -4.275831445896959482E-31, -1.000000000000000000, -1.224646799147353454E-16 ) ) ;
#306 = LINE ( 'NONE', #229, #121 ) ;
#307 = DIRECTION ( 'NONE',  ( -2.468850131082257455E-15, 0.7071067811865497932, -0.7071067811865453523 ) ) ;
#308 = ORIENTED_EDGE ( 'NONE', *, *, #251, .T. ) ;
#309 = APPROVAL_DATE_TIME ( #154, #232 ) ;
#310 = CARTESIAN_POINT ( 'NONE',  ( 4.776122516674658551E-16, -3.899999999999997691, -4.776122516674692077E-16 ) ) ;
#311 = AXIS2_PLACEMENT_3D ( 'NONE', #211, #181, #47 ) ;
#312 = PERSON_AND_ORGANIZATION ( #30, #72 ) ;
#313 = CALENDAR_DATE ( 2021, 2, 9 ) ;
#314 = APPROVAL_DATE_TIME ( #285, #62 ) ;
#315 = EDGE_LOOP ( 'NONE', ( #225, #218, #252 ) ) ;
#316 = ORIENTED_EDGE ( 'NONE', *, *, #283, .T. ) ;
#317 = CONICAL_SURFACE ( 'NONE', #51, 3.899999999999993250, 1.029744258676649649 ) ;
#318 = EDGE_CURVE ( 'NONE', #28, #123, #262, .T. ) ;
#319 = VERTEX_POINT ( 'NONE', #42 ) ;
#320 = PLANE ( 'NONE',  #200 ) ;
#321 = ADVANCED_FACE ( 'NONE', ( #206 ), #246, .T. ) ;
#322 = CARTESIAN_POINT ( 'NONE',  ( 0.0000000000000000000, 0.0000000000000000000, 0.0000000000000000000 ) ) ;
#323 = CC_DESIGN_APPROVAL ( #263, ( #194 ) ) ;
#324 = CARTESIAN_POINT ( 'NONE',  ( 0.0000000000000000000, 0.0000000000000000000, 0.0000000000000000000 ) ) ;
#325 = CC_DESIGN_DATE_AND_TIME_ASSIGNMENT ( #201, #69, ( #210 ) ) ;
#326 = DIRECTION ( 'NONE',  ( -3.950625526948183093E-31, -1.000000000000000000, -1.112002228190262924E-16 ) ) ;
#327 = ORIENTED_EDGE ( 'NONE', *, *, #52, .T. ) ;
#328 = DIRECTION ( 'NONE',  ( 0.0000000000000000000, 1.000000000000000000, 0.0000000000000000000 ) ) ;
#329 = PERSON_AND_ORGANIZATION_ROLE ( 'creator' ) ;
#330 = DIRECTION ( 'NONE',  ( -3.491481338843133355E-15, 1.224646799147353454E-16, -1.000000000000000000 ) ) ;
#331 = CALENDAR_DATE ( 2021, 2, 9 ) ;
#332 = DIRECTION ( 'NONE',  ( -3.491481338843133355E-15, 1.224646799147353454E-16, -1.000000000000000000 ) ) ;
#333 = PERSON_AND_ORGANIZATION ( #30, #72 ) ;
#334 = CARTESIAN_POINT ( 'NONE',  ( 4.085033166446466404E-13, -1.432836755002403758E-14, 117.0000000000000000 ) ) ;
#335 = COORDINATED_UNIVERSAL_TIME_OFFSET ( 1, 0, .AHEAD. ) ;
#336 = DIRECTION ( 'NONE',  ( -3.491481338843133355E-15, 1.224646799147353454E-16, -1.000000000000000000 ) ) ;
#337 = APPROVAL_ROLE ( '' ) ;
ENDSEC;
END-ISO-10303-21;
