ISO-10303-21;
HEADER;
FILE_DESCRIPTION (( 'STEP AP203' ),
    '1' );
FILE_NAME ('45776.step',
    '2021-10-08T05:53:53',
    ( '' ),
    ( '' ),
    'SwSTEP 2.0',
    'SolidWorks 2019',
    '' );
FILE_SCHEMA (( 'CONFIG_CONTROL_DESIGN' ));
ENDSEC;

DATA;
#1 = CARTESIAN_POINT ( 'NONE',  ( 1.043952920314096810E-13, 0.7499999999999963363, 29.89999999999999858 ) ) ;
#2 = FACE_OUTER_BOUND ( 'NONE', #132, .T. ) ;
#3 = FACE_OUTER_BOUND ( 'NONE', #34, .T. ) ;
#4 = UNCERTAINTY_MEASURE_WITH_UNIT (LENGTH_MEASURE( 1.000000000000000082E-05 ), #77, 'distance_accuracy_value', 'NONE');
#5 = DIRECTION ( 'NONE',  ( -3.491481338843133355E-15, 1.224646799147353207E-16, -1.000000000000000000 ) ) ;
#6 = VERTEX_POINT ( 'NONE', #57 ) ;
#7 = DATE_AND_TIME ( #44, #164 ) ;
#8 = CONICAL_SURFACE ( 'NONE', #195, 0.4199999999999992628, 1.047197551196592968 ) ;
#9 = MECHANICAL_CONTEXT ( 'NONE', #96, 'mechanical' ) ;
#10 = ADVANCED_FACE ( 'NONE', ( #134 ), #187, .F. ) ;
#11 = PERSON_AND_ORGANIZATION ( #49, #129 ) ;
#12 = EDGE_LOOP ( 'NONE', ( #121 ) ) ;
#13 = AXIS2_PLACEMENT_3D ( 'NONE', #31, #30, #169 ) ;
#14 = AXIS2_PLACEMENT_3D ( 'NONE', #62, #19, #196 ) ;
#15 = CC_DESIGN_PERSON_AND_ORGANIZATION_ASSIGNMENT ( #146, #112, ( #179 ) ) ;
#16 = PLANE ( 'NONE',  #139 ) ;
#17 = EDGE_LOOP ( 'NONE', ( #67 ) ) ;
#18 = VERTEX_POINT ( 'NONE', #88 ) ;
#19 = DIRECTION ( 'NONE',  ( -3.491481338843133355E-15, 1.224646799147353207E-16, -1.000000000000000000 ) ) ;
#20 = CC_DESIGN_APPROVAL ( #193, ( #50 ) ) ;
#21 = CARTESIAN_POINT ( 'NONE',  ( 2.199633243471174014E-14, 3.149495543589890439E-33, 6.299999999999999822 ) ) ;
#22 = CALENDAR_DATE ( 2021, 8, 10 ) ;
#23 = COORDINATED_UNIVERSAL_TIME_OFFSET ( 1, 0, .AHEAD. ) ;
#24 = APPROVAL_DATE_TIME ( #7, #61 ) ;
#25 = DATE_TIME_ROLE ( 'classification_date' ) ;
#26 = PERSON_AND_ORGANIZATION ( #49, #129 ) ;
#27 = CONICAL_SURFACE ( 'NONE', #13, 0.6500000000000000222, 0.7853981633974516097 ) ;
#28 = AXIS2_PLACEMENT_3D ( 'NONE', #214, #5, #35 ) ;
#29 = ADVANCED_FACE ( 'NONE', ( #154, #183 ), #27, .T. ) ;
#30 = DIRECTION ( 'NONE',  ( -3.491481338843133355E-15, 1.224646799147353207E-16, -1.000000000000000000 ) ) ;
#31 = CARTESIAN_POINT ( 'NONE',  ( 1.047444401652940007E-13, -3.673940397442059178E-15, 30.00000000000000000 ) ) ;
#32 = ADVANCED_FACE ( 'NONE', ( #98 ), #16, .F. ) ;
#33 = EDGE_LOOP ( 'NONE', ( #52 ) ) ;
#34 = EDGE_LOOP ( 'NONE', ( #150 ) ) ;
#35 = DIRECTION ( 'NONE',  ( 0.0000000000000000000, 1.000000000000000000, 0.0000000000000000000 ) ) ;
#36 = DIRECTION ( 'NONE',  ( -3.491481338843133355E-15, 1.224646799147353207E-16, -1.000000000000000000 ) ) ;
#37 = MANIFOLD_SOLID_BREP ( 'Corps-Déplacer/Copier1[1]', #190 ) ;
#38 = CARTESIAN_POINT ( 'NONE',  ( 8.466392301576958866E-16, -2.969610668429767613E-17, 0.2424871130596451263 ) ) ;
#39 = CC_DESIGN_APPROVAL ( #61, ( #179 ) ) ;
#40 = CARTESIAN_POINT ( 'NONE',  ( 2.199633243471174329E-14, -7.715274834628326364E-16, 6.300000000000000711 ) ) ;
#41 = PERSON_AND_ORGANIZATION_ROLE ( 'classification_officer' ) ;
#42 = EDGE_CURVE ( 'NONE', #107, #107, #43, .T. ) ;
#43 = CIRCLE ( 'NONE', #127, 0.6500000000000000222 ) ;
#44 = CALENDAR_DATE ( 2021, 8, 10 ) ;
#45 = SHAPE_DEFINITION_REPRESENTATION ( #186, #212 ) ;
#46 = PERSON_AND_ORGANIZATION_ROLE ( 'creator' ) ;
#47 = EDGE_LOOP ( 'NONE', ( #152 ) ) ;
#48 = DIRECTION ( 'NONE',  ( -3.491481338843133355E-15, 1.224646799147353207E-16, -1.000000000000000000 ) ) ;
#49 = PERSON ( 'UNSPECIFIED', 'UNSPECIFIED', 'UNSPECIFIED', ('UNSPECIFIED'), ('UNSPECIFIED'), ('UNSPECIFIED') ) ;
#50 = PRODUCT_DEFINITION ( 'UNKNOWN', '', #179, #99 ) ;
#51 = LOCAL_TIME ( 7, 53, 53.00000000000000000, #166 ) ;
#52 = ORIENTED_EDGE ( 'NONE', *, *, #172, .T. ) ;
#53 = CIRCLE ( 'NONE', #75, 0.4200000000000001510 ) ;
#54 = ORIENTED_EDGE ( 'NONE', *, *, #123, .F. ) ;
#55 = CARTESIAN_POINT ( 'NONE',  ( 2.199633243471174329E-14, -7.715274834628326364E-16, 6.300000000000000711 ) ) ;
#56 = EDGE_CURVE ( 'NONE', #173, #173, #70, .T. ) ;
#57 = CARTESIAN_POINT ( 'NONE',  ( 2.199633243471174329E-14, 0.4199999999999993738, 6.300000000000000711 ) ) ;
#58 =( GEOMETRIC_REPRESENTATION_CONTEXT ( 3 ) GLOBAL_UNCERTAINTY_ASSIGNED_CONTEXT ( ( #4 ) ) GLOBAL_UNIT_ASSIGNED_CONTEXT ( ( #77, #189, #92 ) ) REPRESENTATION_CONTEXT ( 'NONE', 'WORKASPACE' ) );
#59 = DIRECTION ( 'NONE',  ( 0.0000000000000000000, 1.000000000000000000, 0.0000000000000000000 ) ) ;
#60 = PLANE ( 'NONE',  #185 ) ;
#61 = APPROVAL ( #197, 'UNSPECIFIED' ) ;
#62 = CARTESIAN_POINT ( 'NONE',  ( 0.0000000000000000000, 0.0000000000000000000, 0.0000000000000000000 ) ) ;
#63 = APPROVAL_DATE_TIME ( #203, #193 ) ;
#64 = COORDINATED_UNIVERSAL_TIME_OFFSET ( 1, 0, .AHEAD. ) ;
#65 = AXIS2_PLACEMENT_3D ( 'NONE', #38, #74, #208 ) ;
#66 = APPLICATION_PROTOCOL_DEFINITION ( 'international standard', 'config_control_design', 1994, #96 ) ;
#67 = ORIENTED_EDGE ( 'NONE', *, *, #89, .F. ) ;
#68 = CC_DESIGN_DATE_AND_TIME_ASSIGNMENT ( #93, #25, ( #79 ) ) ;
#69 = CLOSED_SHELL ( 'NONE', ( #72, #142, #221 ) ) ;
#70 = CIRCLE ( 'NONE', #28, 0.7499999999999972244 ) ;
#71 = DIRECTION ( 'NONE',  ( -4.275831445896958607E-31, -1.000000000000000000, -1.224646799147353207E-16 ) ) ;
#72 = ADVANCED_FACE ( 'NONE', ( #211 ), #8, .T. ) ;
#73 = DIRECTION ( 'NONE',  ( 0.0000000000000000000, -1.000000000000000000, 0.0000000000000000000 ) ) ;
#74 = DIRECTION ( 'NONE',  ( -3.491481338843133355E-15, 1.224646799147353207E-16, -1.000000000000000000 ) ) ;
#75 = AXIS2_PLACEMENT_3D ( 'NONE', #40, #76, #104 ) ;
#76 = DIRECTION ( 'NONE',  ( -3.491481338843133355E-15, 1.224646799147353207E-16, -1.000000000000000000 ) ) ;
#77 =( LENGTH_UNIT ( ) NAMED_UNIT ( * ) SI_UNIT ( .MILLI., .METRE. ) );
#78 = DIRECTION ( 'NONE',  ( 0.0000000000000000000, 0.0000000000000000000, 1.000000000000000000 ) ) ;
#79 = SECURITY_CLASSIFICATION ( '', '', #115 ) ;
#80 = PERSON_AND_ORGANIZATION ( #49, #129 ) ;
#81 = DATE_AND_TIME ( #22, #51 ) ;
#82 = CARTESIAN_POINT ( 'NONE',  ( 0.0000000000000000000, 0.0000000000000000000, 0.0000000000000000000 ) ) ;
#83 = LOCAL_TIME ( 7, 53, 53.00000000000000000, #163 ) ;
#84 = ORIENTED_EDGE ( 'NONE', *, *, #123, .T. ) ;
#85 = CONICAL_SURFACE ( 'NONE', #153, 0.7499999999999972244, 0.5235987755982935976 ) ;
#86 = CARTESIAN_POINT ( 'NONE',  ( 2.399198204865487091E-14, 0.7499999999999963363, 6.871576766497732081 ) ) ;
#87 = DIRECTION ( 'NONE',  ( 3.491481338843133355E-15, -1.224646799147353207E-16, 1.000000000000000000 ) ) ;
#88 = CARTESIAN_POINT ( 'NONE',  ( 8.466392301576960838E-16, 0.4199999999999992073, 0.2424871130596451541 ) ) ;
#89 = EDGE_CURVE ( 'NONE', #125, #125, #159, .T. ) ;
#90 = FACE_BOUND ( 'NONE', #12, .T. ) ;
#91 = CARTESIAN_POINT ( 'NONE',  ( 1.047444401652940007E-13, 0.6499999999999962474, 30.00000000000000000 ) ) ;
#92 =( NAMED_UNIT ( * ) SI_UNIT ( $, .STERADIAN. ) SOLID_ANGLE_UNIT ( ) );
#93 = DATE_AND_TIME ( #180, #149 ) ;
#94 = APPROVAL_ROLE ( '' ) ;
#95 = PERSON_AND_ORGANIZATION ( #49, #129 ) ;
#96 = APPLICATION_CONTEXT ( 'configuration controlled 3d designs of mechanical parts and assemblies' ) ;
#97 = ORIENTED_EDGE ( 'NONE', *, *, #151, .F. ) ;
#98 = FACE_OUTER_BOUND ( 'NONE', #33, .T. ) ;
#99 = DESIGN_CONTEXT ( 'detailed design', #126, 'design' ) ;
#100 = CARTESIAN_POINT ( 'NONE',  ( 1.047444401652940007E-13, 4.874219293650981803E-33, 30.00000000000000000 ) ) ;
#101 = CC_DESIGN_PERSON_AND_ORGANIZATION_ASSIGNMENT ( #218, #219, ( #182 ) ) ;
#102 = AXIS2_PLACEMENT_3D ( 'NONE', #160, #157, #59 ) ;
#103 = DIRECTION ( 'NONE',  ( 3.491481338843133355E-15, -1.224646799147353207E-16, 1.000000000000000000 ) ) ;
#104 = DIRECTION ( 'NONE',  ( 0.0000000000000000000, 1.000000000000000000, 0.0000000000000000000 ) ) ;
#105 = CC_DESIGN_PERSON_AND_ORGANIZATION_ASSIGNMENT ( #11, #215, ( #179 ) ) ;
#106 = CARTESIAN_POINT ( 'NONE',  ( 0.0000000000000000000, 0.0000000000000000000, 0.0000000000000000000 ) ) ;
#107 = VERTEX_POINT ( 'NONE', #91 ) ;
#108 = FACE_OUTER_BOUND ( 'NONE', #184, .T. ) ;
#109 = APPROVAL_ROLE ( '' ) ;
#110 = CALENDAR_DATE ( 2021, 8, 10 ) ;
#111 = AXIS2_PLACEMENT_3D ( 'NONE', #100, #48, #116 ) ;
#112 = PERSON_AND_ORGANIZATION_ROLE ( 'creator' ) ;
#113 = MANIFOLD_SOLID_BREP ( 'Corps-Déplacer/Copier1[2]', #69 ) ;
#114 = ADVANCED_FACE ( 'NONE', ( #137, #3 ), #171, .T. ) ;
#115 = SECURITY_CLASSIFICATION_LEVEL ( 'unclassified' ) ;
#116 = DIRECTION ( 'NONE',  ( 4.275831445896958607E-31, 1.000000000000000000, 1.224646799147353207E-16 ) ) ;
#117 = EDGE_LOOP ( 'NONE', ( #170 ) ) ;
#118 = APPROVAL_PERSON_ORGANIZATION ( #130, #193, #199 ) ;
#119 = ORIENTED_EDGE ( 'NONE', *, *, #42, .T. ) ;
#120 = PRODUCT_RELATED_PRODUCT_CATEGORY ( 'detail', '', ( #182 ) ) ;
#121 = ORIENTED_EDGE ( 'NONE', *, *, #172, .F. ) ;
#122 = VERTEX_POINT ( 'NONE', #192 ) ;
#123 = EDGE_CURVE ( 'NONE', #6, #6, #53, .T. ) ;
#124 = FACE_OUTER_BOUND ( 'NONE', #47, .T. ) ;
#125 = VERTEX_POINT ( 'NONE', #1 ) ;
#126 = APPLICATION_CONTEXT ( 'configuration controlled 3d designs of mechanical parts and assemblies' ) ;
#127 = AXIS2_PLACEMENT_3D ( 'NONE', #128, #191, #138 ) ;
#128 = CARTESIAN_POINT ( 'NONE',  ( 1.047444401652940007E-13, -3.673940397442059178E-15, 30.00000000000000000 ) ) ;
#129 = ORGANIZATION ( 'UNSPECIFIED', 'UNSPECIFIED', '' ) ;
#130 = PERSON_AND_ORGANIZATION ( #49, #129 ) ;
#131 = APPLICATION_PROTOCOL_DEFINITION ( 'international standard', 'config_control_design', 1994, #126 ) ;
#132 = EDGE_LOOP ( 'NONE', ( #97 ) ) ;
#133 = APPROVAL_PERSON_ORGANIZATION ( #80, #162, #109 ) ;
#134 = FACE_OUTER_BOUND ( 'NONE', #167, .T. ) ;
#135 = CC_DESIGN_PERSON_AND_ORGANIZATION_ASSIGNMENT ( #144, #46, ( #50 ) ) ;
#136 = AXIS2_PLACEMENT_3D ( 'NONE', #106, #140, #194 ) ;
#137 = FACE_OUTER_BOUND ( 'NONE', #205, .T. ) ;
#138 = DIRECTION ( 'NONE',  ( 0.0000000000000000000, 1.000000000000000000, 0.0000000000000000000 ) ) ;
#139 = AXIS2_PLACEMENT_3D ( 'NONE', #168, #155, #71 ) ;
#140 = DIRECTION ( 'NONE',  ( -3.491481338843133355E-15, 1.224646799147353207E-16, -1.000000000000000000 ) ) ;
#141 = CYLINDRICAL_SURFACE ( 'NONE', #136, 0.4199999999999997069 ) ;
#142 = ADVANCED_FACE ( 'NONE', ( #2, #108 ), #141, .T. ) ;
#143 = DATE_TIME_ROLE ( 'creation_date' ) ;
#144 = PERSON_AND_ORGANIZATION ( #49, #129 ) ;
#145 = ADVANCED_FACE ( 'NONE', ( #90, #124 ), #85, .T. ) ;
#146 = PERSON_AND_ORGANIZATION ( #49, #129 ) ;
#147 = DATE_AND_TIME ( #110, #83 ) ;
#148 = AXIS2_PLACEMENT_3D ( 'NONE', #55, #36, #213 ) ;
#149 = LOCAL_TIME ( 7, 53, 53.00000000000000000, #23 ) ;
#150 = ORIENTED_EDGE ( 'NONE', *, *, #89, .T. ) ;
#151 = EDGE_CURVE ( 'NONE', #18, #18, #181, .T. ) ;
#152 = ORIENTED_EDGE ( 'NONE', *, *, #56, .T. ) ;
#153 = AXIS2_PLACEMENT_3D ( 'NONE', #175, #176, #73 ) ;
#154 = FACE_OUTER_BOUND ( 'NONE', #17, .T. ) ;
#155 = DIRECTION ( 'NONE',  ( 3.491481338843133355E-15, -1.224646799147353207E-16, 1.000000000000000000 ) ) ;
#156 = CC_DESIGN_SECURITY_CLASSIFICATION ( #79, ( #179 ) ) ;
#157 = DIRECTION ( 'NONE',  ( -3.491481338843133355E-15, 1.224646799147353207E-16, -1.000000000000000000 ) ) ;
#158 = DIRECTION ( 'NONE',  ( -4.585547486636284182E-31, -1.000000000000000000, -1.290716872006555245E-16 ) ) ;
#159 = CIRCLE ( 'NONE', #102, 0.7500000000000000000 ) ;
#160 = CARTESIAN_POINT ( 'NONE',  ( 1.043952920314096810E-13, -3.661693929450586610E-15, 29.89999999999999858 ) ) ;
#161 = FACE_OUTER_BOUND ( 'NONE', #204, .T. ) ;
#162 = APPROVAL ( #165, 'UNSPECIFIED' ) ;
#163 = COORDINATED_UNIVERSAL_TIME_OFFSET ( 1, 0, .AHEAD. ) ;
#164 = LOCAL_TIME ( 7, 53, 53.00000000000000000, #177 ) ;
#165 = APPROVAL_STATUS ( 'not_yet_approved' ) ;
#166 = COORDINATED_UNIVERSAL_TIME_OFFSET ( 1, 0, .AHEAD. ) ;
#167 = EDGE_LOOP ( 'NONE', ( #223 ) ) ;
#168 = CARTESIAN_POINT ( 'NONE',  ( 2.199633243471174014E-14, 3.149495543589890439E-33, 6.299999999999999822 ) ) ;
#169 = DIRECTION ( 'NONE',  ( 0.0000000000000000000, 1.000000000000000000, 0.0000000000000000000 ) ) ;
#170 = ORIENTED_EDGE ( 'NONE', *, *, #151, .T. ) ;
#171 = CYLINDRICAL_SURFACE ( 'NONE', #14, 0.7499999999999985567 ) ;
#172 = EDGE_CURVE ( 'NONE', #122, #122, #210, .T. ) ;
#173 = VERTEX_POINT ( 'NONE', #86 ) ;
#174 = CARTESIAN_POINT ( 'NONE',  ( 8.466392301576958866E-16, -2.969610668429767613E-17, 0.2424871130596451263 ) ) ;
#175 = CARTESIAN_POINT ( 'NONE',  ( 2.399198204865487091E-14, -8.415254492186767792E-16, 6.871576766497732081 ) ) ;
#176 = DIRECTION ( 'NONE',  ( 3.491481338843133355E-15, -1.224646799147353207E-16, 1.000000000000000000 ) ) ;
#177 = COORDINATED_UNIVERSAL_TIME_OFFSET ( 1, 0, .AHEAD. ) ;
#178 = CALENDAR_DATE ( 2021, 8, 10 ) ;
#179 = PRODUCT_DEFINITION_FORMATION_WITH_SPECIFIED_SOURCE ( 'ANY', '', #182, .NOT_KNOWN. ) ;
#180 = CALENDAR_DATE ( 2021, 8, 10 ) ;
#181 = CIRCLE ( 'NONE', #65, 0.4199999999999992628 ) ;
#182 = PRODUCT ( '45776', '45776', '', ( #9 ) ) ;
#183 = FACE_BOUND ( 'NONE', #206, .T. ) ;
#184 = EDGE_LOOP ( 'NONE', ( #84 ) ) ;
#185 = AXIS2_PLACEMENT_3D ( 'NONE', #21, #87, #209 ) ;
#186 = PRODUCT_DEFINITION_SHAPE ( 'NONE', 'NONE',  #50 ) ;
#187 = PLANE ( 'NONE',  #111 ) ;
#188 = ORIENTED_EDGE ( 'NONE', *, *, #56, .F. ) ;
#189 =( NAMED_UNIT ( * ) PLANE_ANGLE_UNIT ( ) SI_UNIT ( $, .RADIAN. ) );
#190 = CLOSED_SHELL ( 'NONE', ( #32, #145, #114, #29, #10 ) ) ;
#191 = DIRECTION ( 'NONE',  ( -3.491481338843133355E-15, 1.224646799147353207E-16, -1.000000000000000000 ) ) ;
#192 = CARTESIAN_POINT ( 'NONE',  ( 2.199633243471174329E-14, 0.4199999999999993738, 6.300000000000000711 ) ) ;
#193 = APPROVAL ( #217, 'UNSPECIFIED' ) ;
#194 = DIRECTION ( 'NONE',  ( 4.275831445896958607E-31, 1.000000000000000000, 1.224646799147353207E-16 ) ) ;
#195 = AXIS2_PLACEMENT_3D ( 'NONE', #174, #103, #158 ) ;
#196 = DIRECTION ( 'NONE',  ( 4.275831445896959482E-31, 1.000000000000000000, 1.224646799147353454E-16 ) ) ;
#197 = APPROVAL_STATUS ( 'not_yet_approved' ) ;
#198 = DIRECTION ( 'NONE',  ( 1.000000000000000000, 0.0000000000000000000, 0.0000000000000000000 ) ) ;
#199 = APPROVAL_ROLE ( '' ) ;
#200 = AXIS2_PLACEMENT_3D ( 'NONE', #82, #78, #198 ) ;
#201 = APPROVAL_DATE_TIME ( #147, #162 ) ;
#202 = CC_DESIGN_PERSON_AND_ORGANIZATION_ASSIGNMENT ( #95, #41, ( #79 ) ) ;
#203 = DATE_AND_TIME ( #178, #220 ) ;
#204 = EDGE_LOOP ( 'NONE', ( #54 ) ) ;
#205 = EDGE_LOOP ( 'NONE', ( #188 ) ) ;
#206 = EDGE_LOOP ( 'NONE', ( #119 ) ) ;
#207 = CC_DESIGN_APPROVAL ( #162, ( #79 ) ) ;
#208 = DIRECTION ( 'NONE',  ( 4.585547486636284182E-31, 1.000000000000000000, 1.290716872006555245E-16 ) ) ;
#209 = DIRECTION ( 'NONE',  ( -4.275831445896958607E-31, -1.000000000000000000, -1.224646799147353207E-16 ) ) ;
#210 = CIRCLE ( 'NONE', #148, 0.4200000000000001510 ) ;
#211 = FACE_OUTER_BOUND ( 'NONE', #117, .T. ) ;
#212 = ADVANCED_BREP_SHAPE_REPRESENTATION ( '45776', ( #37, #113, #200 ), #58 ) ;
#213 = DIRECTION ( 'NONE',  ( 0.0000000000000000000, 1.000000000000000000, 0.0000000000000000000 ) ) ;
#214 = CARTESIAN_POINT ( 'NONE',  ( 2.399198204865487091E-14, -8.415254492186767792E-16, 6.871576766497732081 ) ) ;
#215 = PERSON_AND_ORGANIZATION_ROLE ( 'design_supplier' ) ;
#216 = CC_DESIGN_DATE_AND_TIME_ASSIGNMENT ( #81, #143, ( #50 ) ) ;
#217 = APPROVAL_STATUS ( 'not_yet_approved' ) ;
#218 = PERSON_AND_ORGANIZATION ( #49, #129 ) ;
#219 = PERSON_AND_ORGANIZATION_ROLE ( 'design_owner' ) ;
#220 = LOCAL_TIME ( 7, 53, 53.00000000000000000, #64 ) ;
#221 = ADVANCED_FACE ( 'NONE', ( #161 ), #60, .T. ) ;
#222 = APPROVAL_PERSON_ORGANIZATION ( #26, #61, #94 ) ;
#223 = ORIENTED_EDGE ( 'NONE', *, *, #42, .F. ) ;
ENDSEC;
END-ISO-10303-21;
