ISO-10303-21;
HEADER;
FILE_DESCRIPTION (( 'STEP AP203' ),
    '1' );
FILE_NAME ('45775.step',
    '2021-10-08T05:53:53',
    ( '' ),
    ( '' ),
    'SwSTEP 2.0',
    'SolidWorks 2019',
    '' );
FILE_SCHEMA (( 'CONFIG_CONTROL_DESIGN' ));
ENDSEC;

DATA;
#1 = AXIS2_PLACEMENT_3D ( 'NONE', #66, #101, #213 ) ;
#2 = APPROVAL_DATE_TIME ( #90, #116 ) ;
#3 = PERSON_AND_ORGANIZATION ( #206, #204 ) ;
#4 = CONICAL_SURFACE ( 'NONE', #128, 0.4149999999999989808, 1.047197551196592746 ) ;
#5 = DATE_TIME_ROLE ( 'classification_date' ) ;
#6 = ORIENTED_EDGE ( 'NONE', *, *, #47, .T. ) ;
#7 = APPROVAL_ROLE ( '' ) ;
#8 = EDGE_LOOP ( 'NONE', ( #195 ) ) ;
#9 = ADVANCED_FACE ( 'NONE', ( #119, #202 ), #24, .T. ) ;
#10 = DIRECTION ( 'NONE',  ( -3.491481338843133355E-15, 1.224646799147353207E-16, -1.000000000000000000 ) ) ;
#11 = PRODUCT_DEFINITION_SHAPE ( 'NONE', 'NONE',  #79 ) ;
#12 = DIRECTION ( 'NONE',  ( 4.275831445896958607E-31, 1.000000000000000000, 1.224646799147352961E-16 ) ) ;
#13 = ORIENTED_EDGE ( 'NONE', *, *, #112, .T. ) ;
#14 = ADVANCED_FACE ( 'NONE', ( #31 ), #115, .T. ) ;
#15 = DIRECTION ( 'NONE',  ( -3.491481338843133355E-15, 1.224646799147353207E-16, -1.000000000000000000 ) ) ;
#16 = EDGE_LOOP ( 'NONE', ( #129 ) ) ;
#17 = CONICAL_SURFACE ( 'NONE', #139, 0.6500000000000000222, 0.7853981633974516097 ) ;
#18 = DIRECTION ( 'NONE',  ( -3.491481338843133355E-15, 1.224646799147353207E-16, -1.000000000000000000 ) ) ;
#19 = CALENDAR_DATE ( 2021, 8, 10 ) ;
#20 = PERSON_AND_ORGANIZATION ( #206, #204 ) ;
#21 = CARTESIAN_POINT ( 'NONE',  ( 1.043952920314096810E-13, 0.7499999999999963363, 29.89999999999999858 ) ) ;
#22 = EDGE_LOOP ( 'NONE', ( #172 ) ) ;
#23 = EDGE_CURVE ( 'NONE', #221, #221, #210, .T. ) ;
#24 = CYLINDRICAL_SURFACE ( 'NONE', #77, 0.4149999999999994804 ) ;
#25 = DIRECTION ( 'NONE',  ( 3.491481338843133355E-15, -1.224646799147353207E-16, 1.000000000000000000 ) ) ;
#26 = FACE_OUTER_BOUND ( 'NONE', #16, .T. ) ;
#27 = ADVANCED_BREP_SHAPE_REPRESENTATION ( '45775', ( #198, #194, #182 ), #143 ) ;
#28 = ADVANCED_FACE ( 'NONE', ( #217 ), #61, .F. ) ;
#29 = CARTESIAN_POINT ( 'NONE',  ( 8.365601917034372430E-16, -2.934258160472268604E-17, 0.2396003617136968356 ) ) ;
#30 = CC_DESIGN_APPROVAL ( #170, ( #79 ) ) ;
#31 = FACE_OUTER_BOUND ( 'NONE', #81, .T. ) ;
#32 = CC_DESIGN_DATE_AND_TIME_ASSIGNMENT ( #76, #5, ( #123 ) ) ;
#33 =( LENGTH_UNIT ( ) NAMED_UNIT ( * ) SI_UNIT ( .MILLI., .METRE. ) );
#34 = CC_DESIGN_SECURITY_CLASSIFICATION ( #123, ( #183 ) ) ;
#35 = PERSON_AND_ORGANIZATION_ROLE ( 'design_owner' ) ;
#36 = PERSON_AND_ORGANIZATION ( #206, #204 ) ;
#37 = DIRECTION ( 'NONE',  ( 0.0000000000000000000, 1.000000000000000000, 0.0000000000000000000 ) ) ;
#38 = CIRCLE ( 'NONE', #117, 0.7499999999999972244 ) ;
#39 = LOCAL_TIME ( 7, 53, 53.00000000000000000, #220 ) ;
#40 = APPROVAL_STATUS ( 'not_yet_approved' ) ;
#41 = APPROVAL_PERSON_ORGANIZATION ( #20, #116, #189 ) ;
#42 = PLANE ( 'NONE',  #159 ) ;
#43 = FACE_BOUND ( 'NONE', #192, .T. ) ;
#44 = DIRECTION ( 'NONE',  ( 3.491481338843133355E-15, -1.224646799147353207E-16, 1.000000000000000000 ) ) ;
#45 = DIRECTION ( 'NONE',  ( 4.640795046716242040E-31, 1.000000000000000000, 1.306267677693381952E-16 ) ) ;
#46 = APPLICATION_PROTOCOL_DEFINITION ( 'international standard', 'config_control_design', 1994, #99 ) ;
#47 = EDGE_CURVE ( 'NONE', #136, #136, #197, .T. ) ;
#48 = APPROVAL_DATE_TIME ( #152, #170 ) ;
#49 = LOCAL_TIME ( 7, 53, 53.00000000000000000, #107 ) ;
#50 = CC_DESIGN_PERSON_AND_ORGANIZATION_ASSIGNMENT ( #208, #52, ( #183 ) ) ;
#51 = DESIGN_CONTEXT ( 'detailed design', #154, 'design' ) ;
#52 = PERSON_AND_ORGANIZATION_ROLE ( 'creator' ) ;
#53 = PERSON_AND_ORGANIZATION_ROLE ( 'classification_officer' ) ;
#54 = EDGE_LOOP ( 'NONE', ( #209 ) ) ;
#55 = AXIS2_PLACEMENT_3D ( 'NONE', #71, #18, #37 ) ;
#56 = CC_DESIGN_DATE_AND_TIME_ASSIGNMENT ( #89, #151, ( #79 ) ) ;
#57 = EDGE_LOOP ( 'NONE', ( #158 ) ) ;
#58 = CIRCLE ( 'NONE', #169, 0.7500000000000000000 ) ;
#59 = CC_DESIGN_PERSON_AND_ORGANIZATION_ASSIGNMENT ( #3, #53, ( #123 ) ) ;
#60 = AXIS2_PLACEMENT_3D ( 'NONE', #163, #44, #86 ) ;
#61 = PLANE ( 'NONE',  #96 ) ;
#62 = DIRECTION ( 'NONE',  ( -4.275831445896958607E-31, -1.000000000000000000, -1.224646799147353207E-16 ) ) ;
#63 = CARTESIAN_POINT ( 'NONE',  ( 1.043952920314096810E-13, -3.661693929450586610E-15, 29.89999999999999858 ) ) ;
#64 = CC_DESIGN_PERSON_AND_ORGANIZATION_ASSIGNMENT ( #165, #35, ( #219 ) ) ;
#65 = DIRECTION ( 'NONE',  ( 0.0000000000000000000, 1.000000000000000000, 0.0000000000000000000 ) ) ;
#66 = CARTESIAN_POINT ( 'NONE',  ( 0.0000000000000000000, 0.0000000000000000000, 0.0000000000000000000 ) ) ;
#67 = ADVANCED_FACE ( 'NONE', ( #142 ), #42, .F. ) ;
#68 = LOCAL_TIME ( 7, 53, 53.00000000000000000, #110 ) ;
#69 = CARTESIAN_POINT ( 'NONE',  ( 2.402221916401765226E-14, 0.7499999999999963363, 6.880237020535578729 ) ) ;
#70 = CALENDAR_DATE ( 2021, 8, 10 ) ;
#71 = CARTESIAN_POINT ( 'NONE',  ( 2.199633243471174014E-14, -7.715274834628325378E-16, 6.299999999999999822 ) ) ;
#72 = VERTEX_POINT ( 'NONE', #88 ) ;
#73 = EDGE_CURVE ( 'NONE', #207, #207, #38, .T. ) ;
#74 = APPROVAL_STATUS ( 'not_yet_approved' ) ;
#75 = CC_DESIGN_PERSON_AND_ORGANIZATION_ASSIGNMENT ( #156, #193, ( #183 ) ) ;
#76 = DATE_AND_TIME ( #191, #68 ) ;
#77 = AXIS2_PLACEMENT_3D ( 'NONE', #131, #199, #12 ) ;
#78 = PERSON_AND_ORGANIZATION ( #206, #204 ) ;
#79 = PRODUCT_DEFINITION ( 'UNKNOWN', '', #183, #51 ) ;
#80 = CONICAL_SURFACE ( 'NONE', #190, 0.7499999999999972244, 0.5235987755982920433 ) ;
#81 = EDGE_LOOP ( 'NONE', ( #157 ) ) ;
#82 = DIRECTION ( 'NONE',  ( -3.491481338843133355E-15, 1.224646799147353207E-16, -1.000000000000000000 ) ) ;
#83 = CARTESIAN_POINT ( 'NONE',  ( 2.199633243471174014E-14, 3.112001549023342357E-33, 6.299999999999999822 ) ) ;
#84 = FACE_BOUND ( 'NONE', #127, .T. ) ;
#85 = CARTESIAN_POINT ( 'NONE',  ( 2.199633243471174014E-14, -7.715274834628325378E-16, 6.299999999999999822 ) ) ;
#86 = DIRECTION ( 'NONE',  ( -4.275831445896958607E-31, -1.000000000000000000, -1.224646799147353207E-16 ) ) ;
#87 = AXIS2_PLACEMENT_3D ( 'NONE', #29, #15, #45 ) ;
#88 = CARTESIAN_POINT ( 'NONE',  ( 8.365601917034374402E-16, 0.4149999999999989253, 0.2396003617136968911 ) ) ;
#89 = DATE_AND_TIME ( #19, #49 ) ;
#90 = DATE_AND_TIME ( #108, #200 ) ;
#91 = CC_DESIGN_APPROVAL ( #212, ( #123 ) ) ;
#92 = APPROVAL_PERSON_ORGANIZATION ( #78, #212, #7 ) ;
#93 = APPROVAL_DATE_TIME ( #171, #212 ) ;
#94 = ADVANCED_FACE ( 'NONE', ( #160, #84 ), #17, .T. ) ;
#95 = ORIENTED_EDGE ( 'NONE', *, *, #47, .F. ) ;
#96 = AXIS2_PLACEMENT_3D ( 'NONE', #83, #25, #62 ) ;
#97 = EDGE_LOOP ( 'NONE', ( #111 ) ) ;
#98 = CARTESIAN_POINT ( 'NONE',  ( 1.047444401652940007E-13, 4.874219293650981803E-33, 30.00000000000000000 ) ) ;
#99 = APPLICATION_CONTEXT ( 'configuration controlled 3d designs of mechanical parts and assemblies' ) ;
#100 = CARTESIAN_POINT ( 'NONE',  ( 1.047444401652940007E-13, -3.673940397442059178E-15, 30.00000000000000000 ) ) ;
#101 = DIRECTION ( 'NONE',  ( -3.491481338843133355E-15, 1.224646799147353207E-16, -1.000000000000000000 ) ) ;
#102 = CARTESIAN_POINT ( 'NONE',  ( 2.402221916401765226E-14, -8.425860244574018234E-16, 6.880237020535578729 ) ) ;
#103 = ADVANCED_FACE ( 'NONE', ( #26, #141 ), #184, .T. ) ;
#104 = DIRECTION ( 'NONE',  ( -3.491481338843133355E-15, 1.224646799147353207E-16, -1.000000000000000000 ) ) ;
#105 = CARTESIAN_POINT ( 'NONE',  ( 2.199633243471174014E-14, 0.4149999999999991473, 6.299999999999999822 ) ) ;
#106 = APPROVAL_PERSON_ORGANIZATION ( #168, #170, #137 ) ;
#107 = COORDINATED_UNIVERSAL_TIME_OFFSET ( 1, 0, .AHEAD. ) ;
#108 = CALENDAR_DATE ( 2021, 8, 10 ) ;
#109 = CLOSED_SHELL ( 'NONE', ( #28, #178, #103, #94, #67 ) ) ;
#110 = COORDINATED_UNIVERSAL_TIME_OFFSET ( 1, 0, .AHEAD. ) ;
#111 = ORIENTED_EDGE ( 'NONE', *, *, #112, .F. ) ;
#112 = EDGE_CURVE ( 'NONE', #223, #223, #58, .T. ) ;
#113 = CALENDAR_DATE ( 2021, 8, 10 ) ;
#114 = ORIENTED_EDGE ( 'NONE', *, *, #23, .T. ) ;
#115 = PLANE ( 'NONE',  #60 ) ;
#116 = APPROVAL ( #74, 'UNSPECIFIED' ) ;
#117 = AXIS2_PLACEMENT_3D ( 'NONE', #175, #10, #162 ) ;
#118 = CARTESIAN_POINT ( 'NONE',  ( 1.047444401652940007E-13, -3.673940397442059178E-15, 30.00000000000000000 ) ) ;
#119 = FACE_OUTER_BOUND ( 'NONE', #8, .T. ) ;
#120 = DIRECTION ( 'NONE',  ( 3.491481338843133355E-15, -1.224646799147353207E-16, 1.000000000000000000 ) ) ;
#121 = VERTEX_POINT ( 'NONE', #125 ) ;
#122 = PERSON_AND_ORGANIZATION_ROLE ( 'creator' ) ;
#123 = SECURITY_CLASSIFICATION ( '', '', #173 ) ;
#124 = COORDINATED_UNIVERSAL_TIME_OFFSET ( 1, 0, .AHEAD. ) ;
#125 = CARTESIAN_POINT ( 'NONE',  ( 2.199633243471174014E-14, 0.4149999999999991473, 6.299999999999999822 ) ) ;
#126 = EDGE_LOOP ( 'NONE', ( #13 ) ) ;
#127 = EDGE_LOOP ( 'NONE', ( #6 ) ) ;
#128 = AXIS2_PLACEMENT_3D ( 'NONE', #134, #145, #201 ) ;
#129 = ORIENTED_EDGE ( 'NONE', *, *, #73, .F. ) ;
#130 = DIRECTION ( 'NONE',  ( -3.491481338843133355E-15, 1.224646799147353207E-16, -1.000000000000000000 ) ) ;
#131 = CARTESIAN_POINT ( 'NONE',  ( 0.0000000000000000000, 0.0000000000000000000, 0.0000000000000000000 ) ) ;
#132 = DIRECTION ( 'NONE',  ( -3.491481338843133355E-15, 1.224646799147353207E-16, -1.000000000000000000 ) ) ;
#133 = DIRECTION ( 'NONE',  ( 0.0000000000000000000, 1.000000000000000000, 0.0000000000000000000 ) ) ;
#134 = CARTESIAN_POINT ( 'NONE',  ( 8.365601917034372430E-16, -2.934258160472268604E-17, 0.2396003617136968356 ) ) ;
#135 =( NAMED_UNIT ( * ) SI_UNIT ( $, .STERADIAN. ) SOLID_ANGLE_UNIT ( ) );
#136 = VERTEX_POINT ( 'NONE', #185 ) ;
#137 = APPROVAL_ROLE ( '' ) ;
#138 = COORDINATED_UNIVERSAL_TIME_OFFSET ( 1, 0, .AHEAD. ) ;
#139 = AXIS2_PLACEMENT_3D ( 'NONE', #118, #82, #146 ) ;
#140 = EDGE_LOOP ( 'NONE', ( #114 ) ) ;
#141 = FACE_OUTER_BOUND ( 'NONE', #126, .T. ) ;
#142 = FACE_OUTER_BOUND ( 'NONE', #203, .T. ) ;
#143 =( GEOMETRIC_REPRESENTATION_CONTEXT ( 3 ) GLOBAL_UNCERTAINTY_ASSIGNED_CONTEXT ( ( #155 ) ) GLOBAL_UNIT_ASSIGNED_CONTEXT ( ( #33, #186, #135 ) ) REPRESENTATION_CONTEXT ( 'NONE', 'WORKASPACE' ) );
#144 = AXIS2_PLACEMENT_3D ( 'NONE', #85, #104, #211 ) ;
#145 = DIRECTION ( 'NONE',  ( 3.491481338843133355E-15, -1.224646799147353207E-16, 1.000000000000000000 ) ) ;
#146 = DIRECTION ( 'NONE',  ( 0.0000000000000000000, 1.000000000000000000, 0.0000000000000000000 ) ) ;
#147 = CARTESIAN_POINT ( 'NONE',  ( 0.0000000000000000000, 0.0000000000000000000, 0.0000000000000000000 ) ) ;
#148 = CIRCLE ( 'NONE', #87, 0.4149999999999989808 ) ;
#149 = CC_DESIGN_PERSON_AND_ORGANIZATION_ASSIGNMENT ( #36, #122, ( #79 ) ) ;
#150 = APPLICATION_PROTOCOL_DEFINITION ( 'international standard', 'config_control_design', 1994, #154 ) ;
#151 = DATE_TIME_ROLE ( 'creation_date' ) ;
#152 = DATE_AND_TIME ( #70, #39 ) ;
#153 = SHAPE_DEFINITION_REPRESENTATION ( #11, #27 ) ;
#154 = APPLICATION_CONTEXT ( 'configuration controlled 3d designs of mechanical parts and assemblies' ) ;
#155 = UNCERTAINTY_MEASURE_WITH_UNIT (LENGTH_MEASURE( 1.000000000000000082E-05 ), #33, 'distance_accuracy_value', 'NONE');
#156 = PERSON_AND_ORGANIZATION ( #206, #204 ) ;
#157 = ORIENTED_EDGE ( 'NONE', *, *, #23, .F. ) ;
#158 = ORIENTED_EDGE ( 'NONE', *, *, #222, .T. ) ;
#159 = AXIS2_PLACEMENT_3D ( 'NONE', #98, #130, #179 ) ;
#160 = FACE_OUTER_BOUND ( 'NONE', #97, .T. ) ;
#161 = ADVANCED_FACE ( 'NONE', ( #177 ), #4, .T. ) ;
#162 = DIRECTION ( 'NONE',  ( 0.0000000000000000000, 1.000000000000000000, 0.0000000000000000000 ) ) ;
#163 = CARTESIAN_POINT ( 'NONE',  ( 2.199633243471174014E-14, 3.112001549023342357E-33, 6.299999999999999822 ) ) ;
#164 = ORIENTED_EDGE ( 'NONE', *, *, #222, .F. ) ;
#165 = PERSON_AND_ORGANIZATION ( #206, #204 ) ;
#166 = LOCAL_TIME ( 7, 53, 53.00000000000000000, #138 ) ;
#167 = APPROVAL_STATUS ( 'not_yet_approved' ) ;
#168 = PERSON_AND_ORGANIZATION ( #206, #204 ) ;
#169 = AXIS2_PLACEMENT_3D ( 'NONE', #63, #132, #65 ) ;
#170 = APPROVAL ( #167, 'UNSPECIFIED' ) ;
#171 = DATE_AND_TIME ( #113, #166 ) ;
#172 = ORIENTED_EDGE ( 'NONE', *, *, #216, .T. ) ;
#173 = SECURITY_CLASSIFICATION_LEVEL ( 'unclassified' ) ;
#174 = PRODUCT_RELATED_PRODUCT_CATEGORY ( 'detail', '', ( #219 ) ) ;
#175 = CARTESIAN_POINT ( 'NONE',  ( 2.402221916401765226E-14, -8.425860244574018234E-16, 6.880237020535578729 ) ) ;
#176 = CC_DESIGN_APPROVAL ( #116, ( #183 ) ) ;
#177 = FACE_OUTER_BOUND ( 'NONE', #22, .T. ) ;
#178 = ADVANCED_FACE ( 'NONE', ( #43, #215 ), #80, .T. ) ;
#179 = DIRECTION ( 'NONE',  ( 4.275831445896958607E-31, 1.000000000000000000, 1.224646799147353207E-16 ) ) ;
#180 = CLOSED_SHELL ( 'NONE', ( #161, #9, #14 ) ) ;
#181 = DIRECTION ( 'NONE',  ( 0.0000000000000000000, -1.000000000000000000, 0.0000000000000000000 ) ) ;
#182 = AXIS2_PLACEMENT_3D ( 'NONE', #147, #218, #205 ) ;
#183 = PRODUCT_DEFINITION_FORMATION_WITH_SPECIFIED_SOURCE ( 'ANY', '', #219, .NOT_KNOWN. ) ;
#184 = CYLINDRICAL_SURFACE ( 'NONE', #1, 0.7499999999999985567 ) ;
#185 = CARTESIAN_POINT ( 'NONE',  ( 1.047444401652940007E-13, 0.6499999999999962474, 30.00000000000000000 ) ) ;
#186 =( NAMED_UNIT ( * ) PLANE_ANGLE_UNIT ( ) SI_UNIT ( $, .RADIAN. ) );
#187 = AXIS2_PLACEMENT_3D ( 'NONE', #100, #196, #133 ) ;
#188 = MECHANICAL_CONTEXT ( 'NONE', #99, 'mechanical' ) ;
#189 = APPROVAL_ROLE ( '' ) ;
#190 = AXIS2_PLACEMENT_3D ( 'NONE', #102, #120, #181 ) ;
#191 = CALENDAR_DATE ( 2021, 8, 10 ) ;
#192 = EDGE_LOOP ( 'NONE', ( #164 ) ) ;
#193 = PERSON_AND_ORGANIZATION_ROLE ( 'design_supplier' ) ;
#194 = MANIFOLD_SOLID_BREP ( 'Corps-Déplacer/Copier1[2]', #180 ) ;
#195 = ORIENTED_EDGE ( 'NONE', *, *, #216, .F. ) ;
#196 = DIRECTION ( 'NONE',  ( -3.491481338843133355E-15, 1.224646799147353207E-16, -1.000000000000000000 ) ) ;
#197 = CIRCLE ( 'NONE', #187, 0.6500000000000000222 ) ;
#198 = MANIFOLD_SOLID_BREP ( 'Corps-Déplacer/Copier1[1]', #109 ) ;
#199 = DIRECTION ( 'NONE',  ( -3.491481338843133355E-15, 1.224646799147353207E-16, -1.000000000000000000 ) ) ;
#200 = LOCAL_TIME ( 7, 53, 53.00000000000000000, #124 ) ;
#201 = DIRECTION ( 'NONE',  ( -4.640795046716242040E-31, -1.000000000000000000, -1.306267677693381952E-16 ) ) ;
#202 = FACE_OUTER_BOUND ( 'NONE', #140, .T. ) ;
#203 = EDGE_LOOP ( 'NONE', ( #95 ) ) ;
#204 = ORGANIZATION ( 'UNSPECIFIED', 'UNSPECIFIED', '' ) ;
#205 = DIRECTION ( 'NONE',  ( 1.000000000000000000, 0.0000000000000000000, 0.0000000000000000000 ) ) ;
#206 = PERSON ( 'UNSPECIFIED', 'UNSPECIFIED', 'UNSPECIFIED', ('UNSPECIFIED'), ('UNSPECIFIED'), ('UNSPECIFIED') ) ;
#207 = VERTEX_POINT ( 'NONE', #69 ) ;
#208 = PERSON_AND_ORGANIZATION ( #206, #204 ) ;
#209 = ORIENTED_EDGE ( 'NONE', *, *, #73, .T. ) ;
#210 = CIRCLE ( 'NONE', #144, 0.4149999999999998690 ) ;
#211 = DIRECTION ( 'NONE',  ( 0.0000000000000000000, 1.000000000000000000, 0.0000000000000000000 ) ) ;
#212 = APPROVAL ( #40, 'UNSPECIFIED' ) ;
#213 = DIRECTION ( 'NONE',  ( 4.275831445896959482E-31, 1.000000000000000000, 1.224646799147353454E-16 ) ) ;
#214 = CIRCLE ( 'NONE', #55, 0.4149999999999998690 ) ;
#215 = FACE_OUTER_BOUND ( 'NONE', #54, .T. ) ;
#216 = EDGE_CURVE ( 'NONE', #72, #72, #148, .T. ) ;
#217 = FACE_OUTER_BOUND ( 'NONE', #57, .T. ) ;
#218 = DIRECTION ( 'NONE',  ( 0.0000000000000000000, 0.0000000000000000000, 1.000000000000000000 ) ) ;
#219 = PRODUCT ( '45775', '45775', '', ( #188 ) ) ;
#220 = COORDINATED_UNIVERSAL_TIME_OFFSET ( 1, 0, .AHEAD. ) ;
#221 = VERTEX_POINT ( 'NONE', #105 ) ;
#222 = EDGE_CURVE ( 'NONE', #121, #121, #214, .T. ) ;
#223 = VERTEX_POINT ( 'NONE', #21 ) ;
ENDSEC;
END-ISO-10303-21;
