ISO-10303-21;
HEADER;
FILE_DESCRIPTION (( 'STEP AP203' ),
    '1' );
FILE_NAME ('45752.step',
    '2021-10-08T05:53:52',
    ( '' ),
    ( '' ),
    'SwSTEP 2.0',
    'SolidWorks 2019',
    '' );
FILE_SCHEMA (( 'CONFIG_CONTROL_DESIGN' ));
ENDSEC;

DATA;
#1 = CARTESIAN_POINT ( 'NONE',  ( 3.142333204958820651E-14, 0.5550000000000003819, 9.000000000000001776 ) ) ;
#2 =( GEOMETRIC_REPRESENTATION_CONTEXT ( 3 ) GLOBAL_UNCERTAINTY_ASSIGNED_CONTEXT ( ( #111 ) ) GLOBAL_UNIT_ASSIGNED_CONTEXT ( ( #84, #171, #222 ) ) REPRESENTATION_CONTEXT ( 'NONE', 'WORKASPACE' ) );
#3 = DATE_AND_TIME ( #193, #146 ) ;
#4 = PERSON_AND_ORGANIZATION ( #186, #81 ) ;
#5 = PERSON_AND_ORGANIZATION_ROLE ( 'classification_officer' ) ;
#6 = ADVANCED_FACE ( 'NONE', ( #127, #115 ), #221, .T. ) ;
#7 = CLOSED_SHELL ( 'NONE', ( #44, #107, #156 ) ) ;
#8 = ORIENTED_EDGE ( 'NONE', *, *, #95, .F. ) ;
#9 = ADVANCED_FACE ( 'NONE', ( #114, #166 ), #150, .T. ) ;
#10 = CONICAL_SURFACE ( 'NONE', #72, 0.5549999999999986056, 1.047197551196592746 ) ;
#11 = CYLINDRICAL_SURFACE ( 'NONE', #117, 0.5550000000000000488 ) ;
#12 = EDGE_LOOP ( 'NONE', ( #206 ) ) ;
#13 = ORIENTED_EDGE ( 'NONE', *, *, #62, .T. ) ;
#14 = CARTESIAN_POINT ( 'NONE',  ( 0.0000000000000000000, 0.0000000000000000000, 0.0000000000000000000 ) ) ;
#15 = CARTESIAN_POINT ( 'NONE',  ( 3.142333204958820651E-14, -2.082805218291900959E-31, 9.000000000000001776 ) ) ;
#16 = APPLICATION_PROTOCOL_DEFINITION ( 'international standard', 'config_control_design', 1994, #130 ) ;
#17 = PERSON_AND_ORGANIZATION_ROLE ( 'creator' ) ;
#18 = EDGE_LOOP ( 'NONE', ( #216 ) ) ;
#19 = COORDINATED_UNIVERSAL_TIME_OFFSET ( 1, 0, .AHEAD. ) ;
#20 = AXIS2_PLACEMENT_3D ( 'NONE', #128, #27, #42 ) ;
#21 = APPROVAL_DATE_TIME ( #3, #82 ) ;
#22 = EDGE_LOOP ( 'NONE', ( #60 ) ) ;
#23 = DATE_AND_TIME ( #35, #140 ) ;
#24 = EDGE_LOOP ( 'NONE', ( #56 ) ) ;
#25 = AXIS2_PLACEMENT_3D ( 'NONE', #132, #167, #121 ) ;
#26 = DIRECTION ( 'NONE',  ( 0.0000000000000000000, 1.000000000000000000, 0.0000000000000000000 ) ) ;
#27 = DIRECTION ( 'NONE',  ( -3.491481338843133355E-15, 1.224646799147353207E-16, -1.000000000000000000 ) ) ;
#28 = PRODUCT ( '45752', '45752', '', ( #149 ) ) ;
#29 = ORIENTED_EDGE ( 'NONE', *, *, #142, .T. ) ;
#30 = FACE_OUTER_BOUND ( 'NONE', #75, .T. ) ;
#31 = AXIS2_PLACEMENT_3D ( 'NONE', #194, #147, #26 ) ;
#32 = CALENDAR_DATE ( 2021, 8, 10 ) ;
#33 = VERTEX_POINT ( 'NONE', #190 ) ;
#34 = PLANE ( 'NONE',  #25 ) ;
#35 = CALENDAR_DATE ( 2021, 8, 10 ) ;
#36 = CC_DESIGN_APPROVAL ( #78, ( #220 ) ) ;
#37 = CARTESIAN_POINT ( 'NONE',  ( 1.047444401652940007E-13, -3.673940397442059178E-15, 30.00000000000000000 ) ) ;
#38 = FACE_OUTER_BOUND ( 'NONE', #24, .T. ) ;
#39 = AXIS2_PLACEMENT_3D ( 'NONE', #207, #46, #189 ) ;
#40 = PERSON_AND_ORGANIZATION ( #186, #81 ) ;
#41 = CC_DESIGN_DATE_AND_TIME_ASSIGNMENT ( #108, #94, ( #161 ) ) ;
#42 = DIRECTION ( 'NONE',  ( 0.0000000000000000000, 1.000000000000000000, 0.0000000000000000000 ) ) ;
#43 = CARTESIAN_POINT ( 'NONE',  ( 3.260257954873640795E-14, -1.143544553542889311E-15, 9.337749907475931366 ) ) ;
#44 = ADVANCED_FACE ( 'NONE', ( #38 ), #10, .T. ) ;
#45 = ORIENTED_EDGE ( 'NONE', *, *, #119, .F. ) ;
#46 = DIRECTION ( 'NONE',  ( 0.0000000000000000000, 0.0000000000000000000, 1.000000000000000000 ) ) ;
#47 = AXIS2_PLACEMENT_3D ( 'NONE', #37, #196, #200 ) ;
#48 = APPROVAL_ROLE ( '' ) ;
#49 = APPROVAL_DATE_TIME ( #104, #78 ) ;
#50 = CC_DESIGN_APPROVAL ( #82, ( #161 ) ) ;
#51 = EDGE_LOOP ( 'NONE', ( #173 ) ) ;
#52 = PERSON_AND_ORGANIZATION ( #186, #81 ) ;
#53 = CONICAL_SURFACE ( 'NONE', #180, 0.7499999999999975575, 0.5235987755982921543 ) ;
#54 = CALENDAR_DATE ( 2021, 8, 10 ) ;
#55 = ORIENTED_EDGE ( 'NONE', *, *, #68, .F. ) ;
#56 = ORIENTED_EDGE ( 'NONE', *, *, #95, .T. ) ;
#57 = PERSON_AND_ORGANIZATION_ROLE ( 'creator' ) ;
#58 = DIRECTION ( 'NONE',  ( 4.275831445896958607E-31, 1.000000000000000000, 1.224646799147353207E-16 ) ) ;
#59 = DIRECTION ( 'NONE',  ( -3.491481338843133355E-15, 1.224646799147353207E-16, -1.000000000000000000 ) ) ;
#60 = ORIENTED_EDGE ( 'NONE', *, *, #119, .T. ) ;
#61 = PRODUCT_DEFINITION_SHAPE ( 'NONE', 'NONE',  #220 ) ;
#62 = EDGE_CURVE ( 'NONE', #33, #33, #192, .T. ) ;
#63 = LOCAL_TIME ( 7, 53, 52.00000000000000000, #70 ) ;
#64 = FACE_OUTER_BOUND ( 'NONE', #143, .T. ) ;
#65 = CIRCLE ( 'NONE', #133, 0.7499999999999975575 ) ;
#66 = COORDINATED_UNIVERSAL_TIME_OFFSET ( 1, 0, .AHEAD. ) ;
#67 = EDGE_LOOP ( 'NONE', ( #29 ) ) ;
#68 = EDGE_CURVE ( 'NONE', #185, #185, #90, .T. ) ;
#69 = APPROVAL_STATUS ( 'not_yet_approved' ) ;
#70 = COORDINATED_UNIVERSAL_TIME_OFFSET ( 1, 0, .AHEAD. ) ;
#71 = EDGE_LOOP ( 'NONE', ( #45 ) ) ;
#72 = AXIS2_PLACEMENT_3D ( 'NONE', #77, #198, #159 ) ;
#73 = APPROVAL ( #69, 'UNSPECIFIED' ) ;
#74 = CARTESIAN_POINT ( 'NONE',  ( 0.0000000000000000000, 0.0000000000000000000, 0.0000000000000000000 ) ) ;
#75 = EDGE_LOOP ( 'NONE', ( #55 ) ) ;
#76 = AXIS2_PLACEMENT_3D ( 'NONE', #15, #79, #153 ) ;
#77 = CARTESIAN_POINT ( 'NONE',  ( 1.118773268422669501E-15, -3.924128383282191552E-17, 0.3204293994002452295 ) ) ;
#78 = APPROVAL ( #204, 'UNSPECIFIED' ) ;
#79 = DIRECTION ( 'NONE',  ( 3.491481338843133355E-15, -1.224646799147353207E-16, 1.000000000000000000 ) ) ;
#80 = AXIS2_PLACEMENT_3D ( 'NONE', #93, #219, #98 ) ;
#81 = ORGANIZATION ( 'UNSPECIFIED', 'UNSPECIFIED', '' ) ;
#82 = APPROVAL ( #211, 'UNSPECIFIED' ) ;
#83 = CARTESIAN_POINT ( 'NONE',  ( 1.047444401652940007E-13, 0.5499999999999963807, 30.00000000000000000 ) ) ;
#84 =( LENGTH_UNIT ( ) NAMED_UNIT ( * ) SI_UNIT ( .MILLI., .METRE. ) );
#85 = DIRECTION ( 'NONE',  ( 0.0000000000000000000, -1.000000000000000000, 0.0000000000000000000 ) ) ;
#86 = EDGE_CURVE ( 'NONE', #118, #118, #155, .T. ) ;
#87 = EDGE_LOOP ( 'NONE', ( #176 ) ) ;
#88 = APPROVAL_ROLE ( '' ) ;
#89 = APPROVAL_PERSON_ORGANIZATION ( #40, #73, #125 ) ;
#90 = CIRCLE ( 'NONE', #105, 0.5550000000000014921 ) ;
#91 = CALENDAR_DATE ( 2021, 8, 10 ) ;
#92 = APPROVAL_DATE_TIME ( #23, #73 ) ;
#93 = CARTESIAN_POINT ( 'NONE',  ( 1.118773268422669501E-15, -3.924128383282191552E-17, 0.3204293994002452295 ) ) ;
#94 = DATE_TIME_ROLE ( 'classification_date' ) ;
#95 = EDGE_CURVE ( 'NONE', #138, #138, #217, .T. ) ;
#96 = AXIS2_PLACEMENT_3D ( 'NONE', #164, #182, #199 ) ;
#97 = MANIFOLD_SOLID_BREP ( 'Corps-Déplacer/Copier1[1]', #197 ) ;
#98 = DIRECTION ( 'NONE',  ( 3.470144043940974121E-31, 1.000000000000000000, 9.767587139509073218E-17 ) ) ;
#99 = FACE_OUTER_BOUND ( 'NONE', #18, .T. ) ;
#100 = DIRECTION ( 'NONE',  ( -3.491481338843133355E-15, 1.224646799147353207E-16, -1.000000000000000000 ) ) ;
#101 = EDGE_LOOP ( 'NONE', ( #8 ) ) ;
#102 = PERSON_AND_ORGANIZATION_ROLE ( 'design_owner' ) ;
#103 = PRODUCT_DEFINITION_FORMATION_WITH_SPECIFIED_SOURCE ( 'ANY', '', #28, .NOT_KNOWN. ) ;
#104 = DATE_AND_TIME ( #32, #109 ) ;
#105 = AXIS2_PLACEMENT_3D ( 'NONE', #116, #59, #179 ) ;
#106 = CARTESIAN_POINT ( 'NONE',  ( 3.260257954873640795E-14, -1.143544553542889311E-15, 9.337749907475931366 ) ) ;
#107 = ADVANCED_FACE ( 'NONE', ( #145, #163 ), #11, .T. ) ;
#108 = DATE_AND_TIME ( #91, #63 ) ;
#109 = LOCAL_TIME ( 7, 53, 52.00000000000000000, #188 ) ;
#110 = SECURITY_CLASSIFICATION_LEVEL ( 'unclassified' ) ;
#111 = UNCERTAINTY_MEASURE_WITH_UNIT (LENGTH_MEASURE( 1.000000000000000082E-05 ), #84, 'distance_accuracy_value', 'NONE');
#112 = CARTESIAN_POINT ( 'NONE',  ( 3.142333204958820651E-14, -1.102182119232617911E-15, 9.000000000000001776 ) ) ;
#113 = CC_DESIGN_SECURITY_CLASSIFICATION ( #161, ( #103 ) ) ;
#114 = FACE_OUTER_BOUND ( 'NONE', #71, .T. ) ;
#115 = FACE_OUTER_BOUND ( 'NONE', #22, .T. ) ;
#116 = CARTESIAN_POINT ( 'NONE',  ( 3.142333204958820651E-14, -1.102182119232617911E-15, 9.000000000000001776 ) ) ;
#117 = AXIS2_PLACEMENT_3D ( 'NONE', #74, #129, #58 ) ;
#118 = VERTEX_POINT ( 'NONE', #83 ) ;
#119 = EDGE_CURVE ( 'NONE', #152, #152, #151, .T. ) ;
#120 = CARTESIAN_POINT ( 'NONE',  ( 1.118773268422669698E-15, 0.5549999999999986056, 0.3204293994002452850 ) ) ;
#121 = DIRECTION ( 'NONE',  ( -4.275831445896958607E-31, -1.000000000000000000, -1.224646799147353207E-16 ) ) ;
#122 = PERSON_AND_ORGANIZATION ( #186, #81 ) ;
#123 = SHAPE_DEFINITION_REPRESENTATION ( #61, #157 ) ;
#124 = DIRECTION ( 'NONE',  ( 0.0000000000000000000, 1.000000000000000000, 0.0000000000000000000 ) ) ;
#125 = APPROVAL_ROLE ( '' ) ;
#126 = DIRECTION ( 'NONE',  ( -3.491481338843133355E-15, 1.224646799147353207E-16, -1.000000000000000000 ) ) ;
#127 = FACE_OUTER_BOUND ( 'NONE', #218, .T. ) ;
#128 = CARTESIAN_POINT ( 'NONE',  ( 1.040461438975253740E-13, -3.649447461459112464E-15, 29.80000000000000071 ) ) ;
#129 = DIRECTION ( 'NONE',  ( -3.491481338843133355E-15, 1.224646799147353207E-16, -1.000000000000000000 ) ) ;
#130 = APPLICATION_CONTEXT ( 'configuration controlled 3d designs of mechanical parts and assemblies' ) ;
#131 = PRODUCT_RELATED_PRODUCT_CATEGORY ( 'detail', '', ( #28 ) ) ;
#132 = CARTESIAN_POINT ( 'NONE',  ( 3.142333204958820651E-14, -2.082805218291900959E-31, 9.000000000000001776 ) ) ;
#133 = AXIS2_PLACEMENT_3D ( 'NONE', #43, #100, #165 ) ;
#134 = FACE_OUTER_BOUND ( 'NONE', #67, .T. ) ;
#135 = MANIFOLD_SOLID_BREP ( 'Corps-Déplacer/Copier1[2]', #7 ) ;
#136 = DIRECTION ( 'NONE',  ( 3.491481338843133355E-15, -1.224646799147353207E-16, 1.000000000000000000 ) ) ;
#137 = CC_DESIGN_APPROVAL ( #73, ( #103 ) ) ;
#138 = VERTEX_POINT ( 'NONE', #120 ) ;
#139 = ADVANCED_FACE ( 'NONE', ( #99 ), #183, .F. ) ;
#140 = LOCAL_TIME ( 7, 53, 52.00000000000000000, #158 ) ;
#141 = DIRECTION ( 'NONE',  ( 4.275831445896959482E-31, 1.000000000000000000, 1.224646799147353207E-16 ) ) ;
#142 = EDGE_CURVE ( 'NONE', #187, #187, #65, .T. ) ;
#143 = EDGE_LOOP ( 'NONE', ( #13 ) ) ;
#144 = CC_DESIGN_PERSON_AND_ORGANIZATION_ASSIGNMENT ( #52, #102, ( #28 ) ) ;
#145 = FACE_OUTER_BOUND ( 'NONE', #101, .T. ) ;
#146 = LOCAL_TIME ( 7, 53, 52.00000000000000000, #19 ) ;
#147 = DIRECTION ( 'NONE',  ( -3.491481338843133355E-15, 1.224646799147353207E-16, -1.000000000000000000 ) ) ;
#148 = CC_DESIGN_PERSON_AND_ORGANIZATION_ASSIGNMENT ( #195, #5, ( #161 ) ) ;
#149 = MECHANICAL_CONTEXT ( 'NONE', #130, 'mechanical' ) ;
#150 = CONICAL_SURFACE ( 'NONE', #47, 0.5500000000000000444, 0.7853981633974512766 ) ;
#151 = CIRCLE ( 'NONE', #20, 0.7500000000000000000 ) ;
#152 = VERTEX_POINT ( 'NONE', #223 ) ;
#153 = DIRECTION ( 'NONE',  ( -4.275831445896958607E-31, -1.000000000000000000, -1.224646799147353207E-16 ) ) ;
#154 = APPLICATION_PROTOCOL_DEFINITION ( 'international standard', 'config_control_design', 1994, #208 ) ;
#155 = CIRCLE ( 'NONE', #31, 0.5500000000000000444 ) ;
#156 = ADVANCED_FACE ( 'NONE', ( #30 ), #34, .T. ) ;
#157 = ADVANCED_BREP_SHAPE_REPRESENTATION ( '45752', ( #97, #135, #39 ), #2 ) ;
#158 = COORDINATED_UNIVERSAL_TIME_OFFSET ( 1, 0, .AHEAD. ) ;
#159 = DIRECTION ( 'NONE',  ( -3.470144043940974121E-31, -1.000000000000000000, -9.767587139509073218E-17 ) ) ;
#160 = ADVANCED_FACE ( 'NONE', ( #205, #134 ), #53, .T. ) ;
#161 = SECURITY_CLASSIFICATION ( '', '', #110 ) ;
#162 = CC_DESIGN_DATE_AND_TIME_ASSIGNMENT ( #215, #174, ( #220 ) ) ;
#163 = FACE_OUTER_BOUND ( 'NONE', #51, .T. ) ;
#164 = CARTESIAN_POINT ( 'NONE',  ( 1.047444401652940007E-13, 4.124339402320052999E-33, 30.00000000000000000 ) ) ;
#165 = DIRECTION ( 'NONE',  ( 0.0000000000000000000, 1.000000000000000000, 0.0000000000000000000 ) ) ;
#166 = FACE_BOUND ( 'NONE', #87, .T. ) ;
#167 = DIRECTION ( 'NONE',  ( 3.491481338843133355E-15, -1.224646799147353207E-16, 1.000000000000000000 ) ) ;
#168 = PERSON_AND_ORGANIZATION ( #186, #81 ) ;
#169 = APPROVAL_PERSON_ORGANIZATION ( #122, #82, #88 ) ;
#170 = ADVANCED_FACE ( 'NONE', ( #64 ), #203, .F. ) ;
#171 =( NAMED_UNIT ( * ) PLANE_ANGLE_UNIT ( ) SI_UNIT ( $, .RADIAN. ) );
#172 = PERSON_AND_ORGANIZATION ( #186, #81 ) ;
#173 = ORIENTED_EDGE ( 'NONE', *, *, #68, .T. ) ;
#174 = DATE_TIME_ROLE ( 'creation_date' ) ;
#175 = PERSON_AND_ORGANIZATION ( #186, #81 ) ;
#176 = ORIENTED_EDGE ( 'NONE', *, *, #86, .T. ) ;
#177 = PERSON_AND_ORGANIZATION_ROLE ( 'design_supplier' ) ;
#178 = DIRECTION ( 'NONE',  ( -3.491481338843133355E-15, 1.224646799147353207E-16, -1.000000000000000000 ) ) ;
#179 = DIRECTION ( 'NONE',  ( 0.0000000000000000000, 1.000000000000000000, 0.0000000000000000000 ) ) ;
#180 = AXIS2_PLACEMENT_3D ( 'NONE', #106, #136, #85 ) ;
#181 = ORIENTED_EDGE ( 'NONE', *, *, #142, .F. ) ;
#182 = DIRECTION ( 'NONE',  ( -3.491481338843133355E-15, 1.224646799147353207E-16, -1.000000000000000000 ) ) ;
#183 = PLANE ( 'NONE',  #96 ) ;
#184 = CC_DESIGN_PERSON_AND_ORGANIZATION_ASSIGNMENT ( #175, #177, ( #103 ) ) ;
#185 = VERTEX_POINT ( 'NONE', #1 ) ;
#186 = PERSON ( 'UNSPECIFIED', 'UNSPECIFIED', 'UNSPECIFIED', ('UNSPECIFIED'), ('UNSPECIFIED'), ('UNSPECIFIED') ) ;
#187 = VERTEX_POINT ( 'NONE', #201 ) ;
#188 = COORDINATED_UNIVERSAL_TIME_OFFSET ( 1, 0, .AHEAD. ) ;
#189 = DIRECTION ( 'NONE',  ( 1.000000000000000000, 0.0000000000000000000, 0.0000000000000000000 ) ) ;
#190 = CARTESIAN_POINT ( 'NONE',  ( 3.142333204958820651E-14, 0.5550000000000003819, 9.000000000000001776 ) ) ;
#191 = CC_DESIGN_PERSON_AND_ORGANIZATION_ASSIGNMENT ( #172, #17, ( #220 ) ) ;
#192 = CIRCLE ( 'NONE', #212, 0.5550000000000014921 ) ;
#193 = CALENDAR_DATE ( 2021, 8, 10 ) ;
#194 = CARTESIAN_POINT ( 'NONE',  ( 1.047444401652940007E-13, -3.673940397442059178E-15, 30.00000000000000000 ) ) ;
#195 = PERSON_AND_ORGANIZATION ( #186, #81 ) ;
#196 = DIRECTION ( 'NONE',  ( -3.491481338843133355E-15, 1.224646799147353207E-16, -1.000000000000000000 ) ) ;
#197 = CLOSED_SHELL ( 'NONE', ( #170, #160, #6, #9, #139 ) ) ;
#198 = DIRECTION ( 'NONE',  ( 3.491481338843133355E-15, -1.224646799147353207E-16, 1.000000000000000000 ) ) ;
#199 = DIRECTION ( 'NONE',  ( 4.275831445896958607E-31, 1.000000000000000000, 1.224646799147353207E-16 ) ) ;
#200 = DIRECTION ( 'NONE',  ( 0.0000000000000000000, 1.000000000000000000, 0.0000000000000000000 ) ) ;
#201 = CARTESIAN_POINT ( 'NONE',  ( 3.260257954873640795E-14, 0.7499999999999963363, 9.337749907475931366 ) ) ;
#202 = AXIS2_PLACEMENT_3D ( 'NONE', #14, #126, #141 ) ;
#203 = PLANE ( 'NONE',  #76 ) ;
#204 = APPROVAL_STATUS ( 'not_yet_approved' ) ;
#205 = FACE_BOUND ( 'NONE', #12, .T. ) ;
#206 = ORIENTED_EDGE ( 'NONE', *, *, #62, .F. ) ;
#207 = CARTESIAN_POINT ( 'NONE',  ( 0.0000000000000000000, 0.0000000000000000000, 0.0000000000000000000 ) ) ;
#208 = APPLICATION_CONTEXT ( 'configuration controlled 3d designs of mechanical parts and assemblies' ) ;
#209 = LOCAL_TIME ( 7, 53, 52.00000000000000000, #66 ) ;
#210 = APPROVAL_PERSON_ORGANIZATION ( #168, #78, #48 ) ;
#211 = APPROVAL_STATUS ( 'not_yet_approved' ) ;
#212 = AXIS2_PLACEMENT_3D ( 'NONE', #112, #178, #124 ) ;
#213 = DESIGN_CONTEXT ( 'detailed design', #208, 'design' ) ;
#214 = CC_DESIGN_PERSON_AND_ORGANIZATION_ASSIGNMENT ( #4, #57, ( #103 ) ) ;
#215 = DATE_AND_TIME ( #54, #209 ) ;
#216 = ORIENTED_EDGE ( 'NONE', *, *, #86, .F. ) ;
#217 = CIRCLE ( 'NONE', #80, 0.5549999999999986056 ) ;
#218 = EDGE_LOOP ( 'NONE', ( #181 ) ) ;
#219 = DIRECTION ( 'NONE',  ( -3.491481338843133355E-15, 1.224646799147353207E-16, -1.000000000000000000 ) ) ;
#220 = PRODUCT_DEFINITION ( 'UNKNOWN', '', #103, #213 ) ;
#221 = CYLINDRICAL_SURFACE ( 'NONE', #202, 0.7499999999999986677 ) ;
#222 =( NAMED_UNIT ( * ) SI_UNIT ( $, .STERADIAN. ) SOLID_ANGLE_UNIT ( ) );
#223 = CARTESIAN_POINT ( 'NONE',  ( 1.040461438975253740E-13, 0.7499999999999963363, 29.80000000000000071 ) ) ;
ENDSEC;
END-ISO-10303-21;
