ISO-10303-21;
HEADER;
FILE_DESCRIPTION (( 'STEP AP203' ),
    '1' );
FILE_NAME ('45736.step',
    '2021-10-06T11:26:26',
    ( '' ),
    ( '' ),
    'SwSTEP 2.0',
    'SolidWorks 2019',
    '' );
FILE_SCHEMA (( 'CONFIG_CONTROL_DESIGN' ));
ENDSEC;

DATA;
#1 = VERTEX_POINT ( 'NONE', #179 ) ;
#2 = FACE_OUTER_BOUND ( 'NONE', #194, .T. ) ;
#3 = ORGANIZATION ( 'UNSPECIFIED', 'UNSPECIFIED', '' ) ;
#4 = DIRECTION ( 'NONE',  ( 4.275831445896958607E-31, 1.000000000000000000, 1.224646799147353207E-16 ) ) ;
#5 = EDGE_CURVE ( 'NONE', #181, #181, #34, .T. ) ;
#6 = PERSON_AND_ORGANIZATION_ROLE ( 'creator' ) ;
#7 =( NAMED_UNIT ( * ) PLANE_ANGLE_UNIT ( ) SI_UNIT ( $, .RADIAN. ) );
#8 = COORDINATED_UNIVERSAL_TIME_OFFSET ( 1, 0, .AHEAD. ) ;
#9 = COORDINATED_UNIVERSAL_TIME_OFFSET ( 1, 0, .AHEAD. ) ;
#10 = ADVANCED_FACE ( 'NONE', ( #112, #182 ), #35, .T. ) ;
#11 = APPROVAL_ROLE ( '' ) ;
#12 = CONICAL_SURFACE ( 'NONE', #63, 2.999999999999992450, 1.134464013796309123 ) ;
#13 = UNCERTAINTY_MEASURE_WITH_UNIT (LENGTH_MEASURE( 1.000000000000000082E-05 ), #53, 'distance_accuracy_value', 'NONE');
#14 = CC_DESIGN_DATE_AND_TIME_ASSIGNMENT ( #60, #149, ( #55 ) ) ;
#15 = DIRECTION ( 'NONE',  ( -3.491481338843133355E-15, 1.224646799147353207E-16, -1.000000000000000000 ) ) ;
#16 = ORIENTED_EDGE ( 'NONE', *, *, #5, .T. ) ;
#17 = EDGE_CURVE ( 'NONE', #1, #1, #76, .T. ) ;
#18 = PRODUCT_DEFINITION_SHAPE ( 'NONE', 'NONE',  #122 ) ;
#19 = DIRECTION ( 'NONE',  ( -3.491481338843133355E-15, 1.224646799147353207E-16, -1.000000000000000000 ) ) ;
#20 = LOCAL_TIME ( 13, 26, 26.00000000000000000, #8 ) ;
#21 = PLANE ( 'NONE',  #37 ) ;
#22 = COORDINATED_UNIVERSAL_TIME_OFFSET ( 1, 0, .AHEAD. ) ;
#23 = PLANE ( 'NONE',  #110 ) ;
#24 = CC_DESIGN_APPROVAL ( #161, ( #55 ) ) ;
#25 = CARTESIAN_POINT ( 'NONE',  ( 0.0000000000000000000, 0.0000000000000000000, 0.0000000000000000000 ) ) ;
#26 = AXIS2_PLACEMENT_3D ( 'NONE', #164, #97, #126 ) ;
#27 = ADVANCED_FACE ( 'NONE', ( #2 ), #21, .F. ) ;
#28 = DIRECTION ( 'NONE',  ( 4.275831445896958607E-31, 1.000000000000000000, 1.224646799147353454E-16 ) ) ;
#29 = APPLICATION_PROTOCOL_DEFINITION ( 'international standard', 'config_control_design', 1994, #171 ) ;
#30 = ADVANCED_FACE ( 'NONE', ( #67 ), #12, .T. ) ;
#31 = CLOSED_SHELL ( 'NONE', ( #89, #10, #41, #27 ) ) ;
#32 = EDGE_LOOP ( 'NONE', ( #92 ) ) ;
#33 = EDGE_LOOP ( 'NONE', ( #105 ) ) ;
#34 = CIRCLE ( 'NONE', #46, 2.300000000000000266 ) ;
#35 = CYLINDRICAL_SURFACE ( 'NONE', #26, 2.999999999999997780 ) ;
#36 = CARTESIAN_POINT ( 'NONE',  ( 4.884313459823513721E-15, -1.713186542932269614E-16, 1.398922974465010460 ) ) ;
#37 = AXIS2_PLACEMENT_3D ( 'NONE', #81, #64, #4 ) ;
#38 = PERSON_AND_ORGANIZATION ( #108, #3 ) ;
#39 = CIRCLE ( 'NONE', #175, 2.999999999999995559 ) ;
#40 = CC_DESIGN_SECURITY_CLASSIFICATION ( #55, ( #197 ) ) ;
#41 = ADVANCED_FACE ( 'NONE', ( #47, #180 ), #144, .T. ) ;
#42 = EDGE_CURVE ( 'NONE', #162, #162, #114, .T. ) ;
#43 = CC_DESIGN_APPROVAL ( #129, ( #197 ) ) ;
#44 = DIRECTION ( 'NONE',  ( 0.0000000000000000000, 1.000000000000000000, 0.0000000000000000000 ) ) ;
#45 = DIRECTION ( 'NONE',  ( -4.275831445896958607E-31, -1.000000000000000000, -1.224646799147353207E-16 ) ) ;
#46 = AXIS2_PLACEMENT_3D ( 'NONE', #163, #80, #44 ) ;
#47 = FACE_OUTER_BOUND ( 'NONE', #32, .T. ) ;
#48 = APPROVAL_PERSON_ORGANIZATION ( #100, #129, #115 ) ;
#49 = VERTEX_POINT ( 'NONE', #95 ) ;
#50 = CC_DESIGN_PERSON_AND_ORGANIZATION_ASSIGNMENT ( #184, #183, ( #122 ) ) ;
#51 = FACE_OUTER_BOUND ( 'NONE', #107, .T. ) ;
#52 = ORIENTED_EDGE ( 'NONE', *, *, #132, .F. ) ;
#53 =( LENGTH_UNIT ( ) NAMED_UNIT ( * ) SI_UNIT ( .MILLI., .METRE. ) );
#54 = CIRCLE ( 'NONE', #203, 2.999999999999995559 ) ;
#55 = SECURITY_CLASSIFICATION ( '', '', #85 ) ;
#56 = MECHANICAL_CONTEXT ( 'NONE', #171, 'mechanical' ) ;
#57 = FACE_OUTER_BOUND ( 'NONE', #33, .T. ) ;
#58 = DIRECTION ( 'NONE',  ( 1.000000000000000000, 0.0000000000000000000, 0.0000000000000000000 ) ) ;
#59 = PRODUCT_RELATED_PRODUCT_CATEGORY ( 'detail', '', ( #193 ) ) ;
#60 = DATE_AND_TIME ( #73, #145 ) ;
#61 = APPROVAL_PERSON_ORGANIZATION ( #116, #87, #202 ) ;
#62 = CC_DESIGN_PERSON_AND_ORGANIZATION_ASSIGNMENT ( #185, #6, ( #197 ) ) ;
#63 = AXIS2_PLACEMENT_3D ( 'NONE', #36, #127, #190 ) ;
#64 = DIRECTION ( 'NONE',  ( -3.491481338843133355E-15, 1.224646799147353207E-16, -1.000000000000000000 ) ) ;
#65 = AXIS2_PLACEMENT_3D ( 'NONE', #25, #15, #28 ) ;
#66 = CARTESIAN_POINT ( 'NONE',  ( 9.776147748760773395E-14, 2.999999999999992450, 28.00000000000000000 ) ) ;
#67 = FACE_OUTER_BOUND ( 'NONE', #158, .T. ) ;
#68 = DATE_AND_TIME ( #131, #20 ) ;
#69 = CARTESIAN_POINT ( 'NONE',  ( 2.279937314264566018E-13, 2.999999999999992450, 65.29999999999999716 ) ) ;
#70 = DIRECTION ( 'NONE',  ( -3.491481338843133355E-15, 1.224646799147353207E-16, -1.000000000000000000 ) ) ;
#71 = DATE_TIME_ROLE ( 'creation_date' ) ;
#72 = DIRECTION ( 'NONE',  ( 3.491481338843133355E-15, -1.224646799147353207E-16, 1.000000000000000000 ) ) ;
#73 = CALENDAR_DATE ( 2021, 6, 10 ) ;
#74 = COORDINATED_UNIVERSAL_TIME_OFFSET ( 1, 0, .AHEAD. ) ;
#75 = DIRECTION ( 'NONE',  ( -3.491481338843133355E-15, 1.224646799147353207E-16, -1.000000000000000000 ) ) ;
#76 = CIRCLE ( 'NONE', #96, 2.999999999999992450 ) ;
#77 = ORIENTED_EDGE ( 'NONE', *, *, #17, .T. ) ;
#78 = DIRECTION ( 'NONE',  ( -3.491481338843133355E-15, 1.224646799147353207E-16, -1.000000000000000000 ) ) ;
#79 =( GEOMETRIC_REPRESENTATION_CONTEXT ( 3 ) GLOBAL_UNCERTAINTY_ASSIGNED_CONTEXT ( ( #13 ) ) GLOBAL_UNIT_ASSIGNED_CONTEXT ( ( #53, #7, #178 ) ) REPRESENTATION_CONTEXT ( 'NONE', 'WORKASPACE' ) );
#80 = DIRECTION ( 'NONE',  ( -3.491481338843133355E-15, 1.224646799147353207E-16, -1.000000000000000000 ) ) ;
#81 = CARTESIAN_POINT ( 'NONE',  ( 2.304377683636468267E-13, 1.724723750061123933E-32, 66.00000000000000000 ) ) ;
#82 = COORDINATED_UNIVERSAL_TIME_OFFSET ( 1, 0, .AHEAD. ) ;
#83 = EDGE_CURVE ( 'NONE', #49, #49, #54, .T. ) ;
#84 = PERSON_AND_ORGANIZATION_ROLE ( 'design_supplier' ) ;
#85 = SECURITY_CLASSIFICATION_LEVEL ( 'unclassified' ) ;
#86 = PERSON_AND_ORGANIZATION ( #108, #3 ) ;
#87 = APPROVAL ( #130, 'UNSPECIFIED' ) ;
#88 = LOCAL_TIME ( 13, 26, 26.00000000000000000, #82 ) ;
#89 = ADVANCED_FACE ( 'NONE', ( #57 ), #23, .F. ) ;
#90 = AXIS2_PLACEMENT_3D ( 'NONE', #138, #102, #58 ) ;
#91 = ORIENTED_EDGE ( 'NONE', *, *, #42, .T. ) ;
#92 = ORIENTED_EDGE ( 'NONE', *, *, #42, .F. ) ;
#93 = CC_DESIGN_PERSON_AND_ORGANIZATION_ASSIGNMENT ( #86, #187, ( #55 ) ) ;
#94 = AXIS2_PLACEMENT_3D ( 'NONE', #165, #19, #117 ) ;
#95 = CARTESIAN_POINT ( 'NONE',  ( 9.776147748760773395E-14, 2.999999999999992450, 28.00000000000000000 ) ) ;
#96 = AXIS2_PLACEMENT_3D ( 'NONE', #143, #78, #142 ) ;
#97 = DIRECTION ( 'NONE',  ( -3.491481338843133355E-15, 1.224646799147353207E-16, -1.000000000000000000 ) ) ;
#98 = VERTEX_POINT ( 'NONE', #66 ) ;
#99 = CALENDAR_DATE ( 2021, 6, 10 ) ;
#100 = PERSON_AND_ORGANIZATION ( #108, #3 ) ;
#101 = CARTESIAN_POINT ( 'NONE',  ( 2.279937314264566018E-13, -7.996943598432214956E-15, 65.29999999999999716 ) ) ;
#102 = DIRECTION ( 'NONE',  ( 0.0000000000000000000, 0.0000000000000000000, 1.000000000000000000 ) ) ;
#103 = APPROVAL_DATE_TIME ( #68, #87 ) ;
#104 = CARTESIAN_POINT ( 'NONE',  ( 9.776147748760773395E-14, -3.429011037612589276E-15, 28.00000000000000000 ) ) ;
#105 = ORIENTED_EDGE ( 'NONE', *, *, #83, .T. ) ;
#106 = LOCAL_TIME ( 13, 26, 26.00000000000000000, #74 ) ;
#107 = EDGE_LOOP ( 'NONE', ( #52 ) ) ;
#108 = PERSON ( 'UNSPECIFIED', 'UNSPECIFIED', 'UNSPECIFIED', ('UNSPECIFIED'), ('UNSPECIFIED'), ('UNSPECIFIED') ) ;
#109 = ORIENTED_EDGE ( 'NONE', *, *, #132, .T. ) ;
#110 = AXIS2_PLACEMENT_3D ( 'NONE', #150, #72, #200 ) ;
#111 = ADVANCED_FACE ( 'NONE', ( #125, #140 ), #192, .T. ) ;
#112 = FACE_OUTER_BOUND ( 'NONE', #174, .T. ) ;
#113 = CARTESIAN_POINT ( 'NONE',  ( 9.776147748760773395E-14, 2.249639673992777927E-32, 28.00000000000000000 ) ) ;
#114 = CIRCLE ( 'NONE', #191, 3.000000000000000000 ) ;
#115 = APPROVAL_ROLE ( '' ) ;
#116 = PERSON_AND_ORGANIZATION ( #108, #3 ) ;
#117 = DIRECTION ( 'NONE',  ( 0.0000000000000000000, 1.000000000000000000, 0.0000000000000000000 ) ) ;
#118 = CALENDAR_DATE ( 2021, 6, 10 ) ;
#119 = ADVANCED_BREP_SHAPE_REPRESENTATION ( '45736', ( #153, #156, #90 ), #79 ) ;
#120 = PERSON_AND_ORGANIZATION ( #108, #3 ) ;
#121 = PERSON_AND_ORGANIZATION_ROLE ( 'design_owner' ) ;
#122 = PRODUCT_DEFINITION ( 'UNKNOWN', '', #197, #133 ) ;
#123 = EDGE_LOOP ( 'NONE', ( #160 ) ) ;
#124 = EDGE_LOOP ( 'NONE', ( #91 ) ) ;
#125 = FACE_OUTER_BOUND ( 'NONE', #123, .T. ) ;
#126 = DIRECTION ( 'NONE',  ( 4.275831445896958607E-31, 1.000000000000000000, 1.224646799147353454E-16 ) ) ;
#127 = DIRECTION ( 'NONE',  ( 3.491481338843133355E-15, -1.224646799147353207E-16, 1.000000000000000000 ) ) ;
#128 = CLOSED_SHELL ( 'NONE', ( #30, #111, #196 ) ) ;
#129 = APPROVAL ( #199, 'UNSPECIFIED' ) ;
#130 = APPROVAL_STATUS ( 'not_yet_approved' ) ;
#131 = CALENDAR_DATE ( 2021, 6, 10 ) ;
#132 = EDGE_CURVE ( 'NONE', #98, #98, #39, .T. ) ;
#133 = DESIGN_CONTEXT ( 'detailed design', #201, 'design' ) ;
#134 = CALENDAR_DATE ( 2021, 6, 10 ) ;
#135 = LOCAL_TIME ( 13, 26, 26.00000000000000000, #22 ) ;
#136 = DATE_AND_TIME ( #99, #106 ) ;
#137 = CARTESIAN_POINT ( 'NONE',  ( 9.776147748760773395E-14, -3.429011037612589276E-15, 28.00000000000000000 ) ) ;
#138 = CARTESIAN_POINT ( 'NONE',  ( 0.0000000000000000000, 0.0000000000000000000, 0.0000000000000000000 ) ) ;
#139 = ORIENTED_EDGE ( 'NONE', *, *, #83, .F. ) ;
#140 = FACE_OUTER_BOUND ( 'NONE', #173, .T. ) ;
#141 = PLANE ( 'NONE',  #186 ) ;
#142 = DIRECTION ( 'NONE',  ( 5.135813185032641787E-31, 1.000000000000000000, 1.445602896647342861E-16 ) ) ;
#143 = CARTESIAN_POINT ( 'NONE',  ( 4.884313459823513721E-15, -1.713186542932269614E-16, 1.398922974465010460 ) ) ;
#144 = CONICAL_SURFACE ( 'NONE', #94, 2.300000000000000266, 0.7853981633974437271 ) ;
#145 = LOCAL_TIME ( 13, 26, 26.00000000000000000, #9 ) ;
#146 = CARTESIAN_POINT ( 'NONE',  ( 2.304377683636468267E-13, 2.299999999999992273, 66.00000000000000000 ) ) ;
#147 = APPROVAL_DATE_TIME ( #136, #161 ) ;
#148 = APPROVAL_PERSON_ORGANIZATION ( #120, #161, #11 ) ;
#149 = DATE_TIME_ROLE ( 'classification_date' ) ;
#150 = CARTESIAN_POINT ( 'NONE',  ( 9.776147748760773395E-14, 2.249639673992777927E-32, 28.00000000000000000 ) ) ;
#151 = SHAPE_DEFINITION_REPRESENTATION ( #18, #119 ) ;
#152 = PERSON_AND_ORGANIZATION ( #108, #3 ) ;
#153 = MANIFOLD_SOLID_BREP ( 'Corps-Déplacer/Copier1[1]', #31 ) ;
#154 = APPLICATION_PROTOCOL_DEFINITION ( 'international standard', 'config_control_design', 1994, #201 ) ;
#155 = DIRECTION ( 'NONE',  ( 0.0000000000000000000, 1.000000000000000000, 0.0000000000000000000 ) ) ;
#156 = MANIFOLD_SOLID_BREP ( 'Corps-Déplacer/Copier1[2]', #128 ) ;
#157 = DIRECTION ( 'NONE',  ( -3.491481338843133355E-15, 1.224646799147353207E-16, -1.000000000000000000 ) ) ;
#158 = EDGE_LOOP ( 'NONE', ( #77 ) ) ;
#159 = DIRECTION ( 'NONE',  ( 0.0000000000000000000, 1.000000000000000000, 0.0000000000000000000 ) ) ;
#160 = ORIENTED_EDGE ( 'NONE', *, *, #17, .F. ) ;
#161 = APPROVAL ( #172, 'UNSPECIFIED' ) ;
#162 = VERTEX_POINT ( 'NONE', #69 ) ;
#163 = CARTESIAN_POINT ( 'NONE',  ( 2.304377683636468267E-13, -8.082668874372532400E-15, 66.00000000000000000 ) ) ;
#164 = CARTESIAN_POINT ( 'NONE',  ( 0.0000000000000000000, 0.0000000000000000000, 0.0000000000000000000 ) ) ;
#165 = CARTESIAN_POINT ( 'NONE',  ( 2.304377683636468267E-13, -8.082668874372532400E-15, 66.00000000000000000 ) ) ;
#166 = DIRECTION ( 'NONE',  ( 3.491481338843133355E-15, -1.224646799147353207E-16, 1.000000000000000000 ) ) ;
#167 = DATE_AND_TIME ( #134, #135 ) ;
#168 = APPROVAL_DATE_TIME ( #195, #129 ) ;
#169 = DIRECTION ( 'NONE',  ( 0.0000000000000000000, 1.000000000000000000, 0.0000000000000000000 ) ) ;
#170 = CC_DESIGN_DATE_AND_TIME_ASSIGNMENT ( #167, #71, ( #122 ) ) ;
#171 = APPLICATION_CONTEXT ( 'configuration controlled 3d designs of mechanical parts and assemblies' ) ;
#172 = APPROVAL_STATUS ( 'not_yet_approved' ) ;
#173 = EDGE_LOOP ( 'NONE', ( #109 ) ) ;
#174 = EDGE_LOOP ( 'NONE', ( #139 ) ) ;
#175 = AXIS2_PLACEMENT_3D ( 'NONE', #137, #75, #159 ) ;
#176 = CC_DESIGN_APPROVAL ( #87, ( #122 ) ) ;
#177 = ORIENTED_EDGE ( 'NONE', *, *, #5, .F. ) ;
#178 =( NAMED_UNIT ( * ) SI_UNIT ( $, .STERADIAN. ) SOLID_ANGLE_UNIT ( ) );
#179 = CARTESIAN_POINT ( 'NONE',  ( 4.884313459823515299E-15, 2.999999999999992450, 1.398922974465010904 ) ) ;
#180 = FACE_BOUND ( 'NONE', #189, .T. ) ;
#181 = VERTEX_POINT ( 'NONE', #146 ) ;
#182 = FACE_OUTER_BOUND ( 'NONE', #124, .T. ) ;
#183 = PERSON_AND_ORGANIZATION_ROLE ( 'creator' ) ;
#184 = PERSON_AND_ORGANIZATION ( #108, #3 ) ;
#185 = PERSON_AND_ORGANIZATION ( #108, #3 ) ;
#186 = AXIS2_PLACEMENT_3D ( 'NONE', #113, #166, #45 ) ;
#187 = PERSON_AND_ORGANIZATION_ROLE ( 'classification_officer' ) ;
#188 = CC_DESIGN_PERSON_AND_ORGANIZATION_ASSIGNMENT ( #152, #121, ( #193 ) ) ;
#189 = EDGE_LOOP ( 'NONE', ( #16 ) ) ;
#190 = DIRECTION ( 'NONE',  ( -5.135813185032641787E-31, -1.000000000000000000, -1.445602896647342861E-16 ) ) ;
#191 = AXIS2_PLACEMENT_3D ( 'NONE', #101, #157, #155 ) ;
#192 = CYLINDRICAL_SURFACE ( 'NONE', #65, 2.999999999999993783 ) ;
#193 = PRODUCT ( '45736', '45736', '', ( #56 ) ) ;
#194 = EDGE_LOOP ( 'NONE', ( #177 ) ) ;
#195 = DATE_AND_TIME ( #118, #88 ) ;
#196 = ADVANCED_FACE ( 'NONE', ( #51 ), #141, .T. ) ;
#197 = PRODUCT_DEFINITION_FORMATION_WITH_SPECIFIED_SOURCE ( 'ANY', '', #193, .NOT_KNOWN. ) ;
#198 = CC_DESIGN_PERSON_AND_ORGANIZATION_ASSIGNMENT ( #38, #84, ( #197 ) ) ;
#199 = APPROVAL_STATUS ( 'not_yet_approved' ) ;
#200 = DIRECTION ( 'NONE',  ( -4.275831445896958607E-31, -1.000000000000000000, -1.224646799147353207E-16 ) ) ;
#201 = APPLICATION_CONTEXT ( 'configuration controlled 3d designs of mechanical parts and assemblies' ) ;
#202 = APPROVAL_ROLE ( '' ) ;
#203 = AXIS2_PLACEMENT_3D ( 'NONE', #104, #70, #169 ) ;
ENDSEC;
END-ISO-10303-21;
