ISO-10303-21;
HEADER;
FILE_DESCRIPTION (( 'STEP AP203' ),
    '1' );
FILE_NAME ('45725.step',
    '2021-09-03T07:22:38',
    ( '' ),
    ( '' ),
    'SwSTEP 2.0',
    'SolidWorks 2019',
    '' );
FILE_SCHEMA (( 'CONFIG_CONTROL_DESIGN' ));
ENDSEC;

DATA;
#1 = CIRCLE ( 'NONE', #154, 6.749999999999996447 ) ;
#2 = CARTESIAN_POINT ( 'NONE',  ( 1.291848095371959215E-13, -4.531193156845206793E-15, 37.00000000000000000 ) ) ;
#3 = PRODUCT_DEFINITION_SHAPE ( 'NONE', 'NONE',  #237 ) ;
#4 = CARTESIAN_POINT ( 'NONE',  ( 3.735885032562152816E-13, -1.310372075087667979E-14, 107.0000000000000000 ) ) ;
#5 = DIRECTION ( 'NONE',  ( 0.0000000000000000000, 1.000000000000000000, 0.0000000000000000000 ) ) ;
#6 = ORIENTED_EDGE ( 'NONE', *, *, #168, .T. ) ;
#7 = CARTESIAN_POINT ( 'NONE',  ( 2.886186225980444826E-30, 6.749999999999994671, 8.266365894244627431E-16 ) ) ;
#8 = ORIENTED_EDGE ( 'NONE', *, *, #145, .F. ) ;
#9 = CARTESIAN_POINT ( 'NONE',  ( 3.735885032562152816E-13, 4.311809375152825022E-32, 107.0000000000000000 ) ) ;
#10 = DIRECTION ( 'NONE',  ( -3.491481338843133355E-15, 1.224646799147353207E-16, -1.000000000000000000 ) ) ;
#11 = APPROVAL_PERSON_ORGANIZATION ( #193, #216, #336 ) ;
#12 = FACE_OUTER_BOUND ( 'NONE', #94, .T. ) ;
#13 = DIRECTION ( 'NONE',  ( -3.491481338843133355E-15, 1.224646799147353207E-16, -1.000000000000000000 ) ) ;
#14 = APPROVAL ( #133, 'UNSPECIFIED' ) ;
#15 = PERSON_AND_ORGANIZATION ( #63, #29 ) ;
#16 = ORIENTED_EDGE ( 'NONE', *, *, #261, .T. ) ;
#17 = CARTESIAN_POINT ( 'NONE',  ( 1.291848095371959215E-13, -4.531193156845206793E-15, 37.00000000000000000 ) ) ;
#18 = LOCAL_TIME ( 9, 22, 38.00000000000000000, #330 ) ;
#19 = DIRECTION ( 'NONE',  ( -4.275831445896958607E-31, -1.000000000000000000, -1.224646799147353207E-16 ) ) ;
#20 =( LENGTH_UNIT ( ) NAMED_UNIT ( * ) SI_UNIT ( .MILLI., .METRE. ) );
#21 = ADVANCED_FACE ( 'NONE', ( #61 ), #54, .T. ) ;
#22 = DIRECTION ( 'NONE',  ( 4.565167275584563568E-31, 1.000000000000000000, 1.284980352575413932E-16 ) ) ;
#23 = DIRECTION ( 'NONE',  ( -4.565167275584563568E-31, -1.000000000000000000, -1.284980352575413932E-16 ) ) ;
#24 = AXIS2_PLACEMENT_3D ( 'NONE', #59, #259, #5 ) ;
#25 = APPROVAL_STATUS ( 'not_yet_approved' ) ;
#26 = CARTESIAN_POINT ( 'NONE',  ( 1.416078206041824237E-14, -6.749999999999993783, 4.055809178436071250 ) ) ;
#27 = CYLINDRICAL_SURFACE ( 'NONE', #294, 6.749999999999994671 ) ;
#28 = PERSON_AND_ORGANIZATION ( #63, #29 ) ;
#29 = ORGANIZATION ( 'UNSPECIFIED', 'UNSPECIFIED', '' ) ;
#30 = CARTESIAN_POINT ( 'NONE',  ( 3.735885032562152816E-13, 5.749999999999992006, 107.0000000000000000 ) ) ;
#31 = DIRECTION ( 'NONE',  ( 3.491481338843133355E-15, -1.224646799147353207E-16, 1.000000000000000000 ) ) ;
#32 = CARTESIAN_POINT ( 'NONE',  ( 8.266365894244606723E-16, -6.750000000000000888, -8.266365894244662930E-16 ) ) ;
#33 =( GEOMETRIC_REPRESENTATION_CONTEXT ( 3 ) GLOBAL_UNCERTAINTY_ASSIGNED_CONTEXT ( ( #328 ) ) GLOBAL_UNIT_ASSIGNED_CONTEXT ( ( #20, #331, #275 ) ) REPRESENTATION_CONTEXT ( 'NONE', 'WORKASPACE' ) );
#34 = EDGE_CURVE ( 'NONE', #74, #218, #152, .T. ) ;
#35 = AXIS2_PLACEMENT_3D ( 'NONE', #37, #143, #313 ) ;
#36 = ORIENTED_EDGE ( 'NONE', *, *, #321, .F. ) ;
#37 = CARTESIAN_POINT ( 'NONE',  ( 0.0000000000000000000, 0.0000000000000000000, 0.0000000000000000000 ) ) ;
#38 = EDGE_CURVE ( 'NONE', #246, #293, #92, .T. ) ;
#39 = EDGE_LOOP ( 'NONE', ( #189, #73, #276, #286 ) ) ;
#40 = AXIS2_PLACEMENT_3D ( 'NONE', #85, #153, #250 ) ;
#41 = DIRECTION ( 'NONE',  ( 0.0000000000000000000, 1.000000000000000000, 0.0000000000000000000 ) ) ;
#42 = CARTESIAN_POINT ( 'NONE',  ( 1.291848095371959215E-13, 5.061689266483759847E-32, 37.00000000000000000 ) ) ;
#43 = DIRECTION ( 'NONE',  ( 0.0000000000000000000, 1.000000000000000000, 0.0000000000000000000 ) ) ;
#44 = AXIS2_PLACEMENT_3D ( 'NONE', #122, #221, #19 ) ;
#45 = DIRECTION ( 'NONE',  ( -3.491481338843133355E-15, 1.224646799147353207E-16, -1.000000000000000000 ) ) ;
#46 = CIRCLE ( 'NONE', #319, 6.749999999999996447 ) ;
#47 = CARTESIAN_POINT ( 'NONE',  ( 1.291848095371959215E-13, -4.531193156845206793E-15, 37.00000000000000000 ) ) ;
#48 = LINE ( 'NONE', #249, #95 ) ;
#49 = EDGE_CURVE ( 'NONE', #218, #74, #70, .T. ) ;
#50 = CIRCLE ( 'NONE', #99, 6.749999999999992895 ) ;
#51 = EDGE_LOOP ( 'NONE', ( #266, #309 ) ) ;
#52 = ORIENTED_EDGE ( 'NONE', *, *, #161, .F. ) ;
#53 = DATE_AND_TIME ( #81, #256 ) ;
#54 = CONICAL_SURFACE ( 'NONE', #173, 5.750000000000005329, 0.7853981633974410625 ) ;
#55 = CALENDAR_DATE ( 2021, 3, 9 ) ;
#56 = CARTESIAN_POINT ( 'NONE',  ( 1.416078206041824237E-14, -6.749999999999993783, 4.055809178436071250 ) ) ;
#57 = ORIENTED_EDGE ( 'NONE', *, *, #145, .T. ) ;
#58 = LINE ( 'NONE', #214, #83 ) ;
#59 = CARTESIAN_POINT ( 'NONE',  ( 3.735885032562152816E-13, -1.310372075087667979E-14, 107.0000000000000000 ) ) ;
#60 = CC_DESIGN_APPROVAL ( #216, ( #160 ) ) ;
#61 = FACE_OUTER_BOUND ( 'NONE', #78, .T. ) ;
#62 = CYLINDRICAL_SURFACE ( 'NONE', #332, 6.750000000000000888 ) ;
#63 = PERSON ( 'UNSPECIFIED', 'UNSPECIFIED', 'UNSPECIFIED', ('UNSPECIFIED'), ('UNSPECIFIED'), ('UNSPECIFIED') ) ;
#64 = DIRECTION ( 'NONE',  ( 0.0000000000000000000, 1.000000000000000000, 0.0000000000000000000 ) ) ;
#65 = APPROVAL ( #25, 'UNSPECIFIED' ) ;
#66 = SHAPE_DEFINITION_REPRESENTATION ( #3, #230 ) ;
#67 = CARTESIAN_POINT ( 'NONE',  ( 3.735885032562152816E-13, -1.310372075087667979E-14, 107.0000000000000000 ) ) ;
#68 = APPROVAL_PERSON_ORGANIZATION ( #252, #14, #258 ) ;
#69 = DIRECTION ( 'NONE',  ( 0.0000000000000000000, 1.000000000000000000, 0.0000000000000000000 ) ) ;
#70 = CIRCLE ( 'NONE', #24, 5.750000000000005329 ) ;
#71 = ORIENTED_EDGE ( 'NONE', *, *, #109, .F. ) ;
#72 = PRODUCT ( '45725', '45725', '', ( #334 ) ) ;
#73 = ORIENTED_EDGE ( 'NONE', *, *, #125, .T. ) ;
#74 = VERTEX_POINT ( 'NONE', #260 ) ;
#75 = DIRECTION ( 'NONE',  ( 0.0000000000000000000, 1.000000000000000000, 0.0000000000000000000 ) ) ;
#76 = PERSON_AND_ORGANIZATION_ROLE ( 'classification_officer' ) ;
#77 = DIRECTION ( 'NONE',  ( -3.491481338843133355E-15, 1.224646799147353207E-16, -1.000000000000000000 ) ) ;
#78 = EDGE_LOOP ( 'NONE', ( #36, #202, #290, #257 ) ) ;
#79 = VECTOR ( 'NONE', #96, 999.9999999999998863 ) ;
#80 = CC_DESIGN_PERSON_AND_ORGANIZATION_ASSIGNMENT ( #28, #104, ( #213 ) ) ;
#81 = CALENDAR_DATE ( 2021, 3, 9 ) ;
#82 = DATE_AND_TIME ( #106, #18 ) ;
#83 = VECTOR ( 'NONE', #134, 1000.000000000000000 ) ;
#84 = CARTESIAN_POINT ( 'NONE',  ( 1.291848095371959215E-13, 6.749999999999992006, 37.00000000000000000 ) ) ;
#85 = CARTESIAN_POINT ( 'NONE',  ( 3.700970219173720599E-13, -1.298125607096194148E-14, 105.9999999999999858 ) ) ;
#86 = CARTESIAN_POINT ( 'NONE',  ( 3.700970219173720599E-13, -1.298125607096194148E-14, 105.9999999999999858 ) ) ;
#87 = AXIS2_PLACEMENT_3D ( 'NONE', #137, #299, #158 ) ;
#88 = ORIENTED_EDGE ( 'NONE', *, *, #109, .T. ) ;
#89 = FACE_OUTER_BOUND ( 'NONE', #159, .T. ) ;
#90 = EDGE_LOOP ( 'NONE', ( #243, #57, #324 ) ) ;
#91 = DIRECTION ( 'NONE',  ( 4.275831445896958607E-31, 1.000000000000000000, 1.224646799147353207E-16 ) ) ;
#92 = LINE ( 'NONE', #7, #148 ) ;
#93 = CALENDAR_DATE ( 2021, 3, 9 ) ;
#94 = EDGE_LOOP ( 'NONE', ( #223, #52 ) ) ;
#95 = VECTOR ( 'NONE', #110, 1000.000000000000000 ) ;
#96 = DIRECTION ( 'NONE',  ( 1.903218546456022717E-15, 0.8571673007021097801, 0.5150380749100585964 ) ) ;
#97 = ORIENTED_EDGE ( 'NONE', *, *, #38, .F. ) ;
#98 = FACE_OUTER_BOUND ( 'NONE', #90, .T. ) ;
#99 = AXIS2_PLACEMENT_3D ( 'NONE', #151, #304, #22 ) ;
#100 = ADVANCED_FACE ( 'NONE', ( #289 ), #196, .T. ) ;
#101 = DIRECTION ( 'NONE',  ( 1.798245827342160317E-15, -0.8571673007021098911, 0.5150380749100582634 ) ) ;
#102 = LINE ( 'NONE', #26, #270 ) ;
#103 = ADVANCED_FACE ( 'NONE', ( #112 ), #264, .T. ) ;
#104 = PERSON_AND_ORGANIZATION_ROLE ( 'creator' ) ;
#105 = PERSON_AND_ORGANIZATION ( #63, #29 ) ;
#106 = CALENDAR_DATE ( 2021, 3, 9 ) ;
#107 = DESIGN_CONTEXT ( 'detailed design', #206, 'design' ) ;
#108 = LOCAL_TIME ( 9, 22, 38.00000000000000000, #337 ) ;
#109 = EDGE_CURVE ( 'NONE', #315, #254, #240, .T. ) ;
#110 = DIRECTION ( 'NONE',  ( -3.491481338843133355E-15, 1.224646799147353207E-16, -1.000000000000000000 ) ) ;
#111 = VERTEX_POINT ( 'NONE', #120 ) ;
#112 = FACE_OUTER_BOUND ( 'NONE', #274, .T. ) ;
#113 = ADVANCED_FACE ( 'NONE', ( #98 ), #288, .T. ) ;
#114 = CLOSED_SHELL ( 'NONE', ( #100, #210, #167, #103, #21, #253 ) ) ;
#115 = DATE_AND_TIME ( #203, #207 ) ;
#116 = AXIS2_PLACEMENT_3D ( 'NONE', #123, #251, #23 ) ;
#117 = VERTEX_POINT ( 'NONE', #285 ) ;
#118 = DIRECTION ( 'NONE',  ( -3.491481338843133355E-15, 1.224646799147353207E-16, -1.000000000000000000 ) ) ;
#119 = CARTESIAN_POINT ( 'NONE',  ( 2.504675523167083204E-13, -6.750000000000017764, 105.9999999999999858 ) ) ;
#120 = CARTESIAN_POINT ( 'NONE',  ( 3.700970219173720599E-13, 6.749999999999992006, 105.9999999999999858 ) ) ;
#121 = VECTOR ( 'NONE', #271, 999.9999999999998863 ) ;
#122 = CARTESIAN_POINT ( 'NONE',  ( 1.291848095371959215E-13, 5.061689266483759847E-32, 37.00000000000000000 ) ) ;
#123 = CARTESIAN_POINT ( 'NONE',  ( 1.416078206041824552E-14, -4.966933728324191570E-16, 4.055809178436072138 ) ) ;
#124 = CARTESIAN_POINT ( 'NONE',  ( 1.291848095371959215E-13, 6.749999999999992006, 37.00000000000000000 ) ) ;
#125 = EDGE_CURVE ( 'NONE', #239, #222, #262, .T. ) ;
#126 = VECTOR ( 'NONE', #139, 1000.000000000000000 ) ;
#127 = DIRECTION ( 'NONE',  ( 0.0000000000000000000, 1.000000000000000000, 0.0000000000000000000 ) ) ;
#128 = DIRECTION ( 'NONE',  ( 4.275831445896958607E-31, 1.000000000000000000, 1.224646799147353207E-16 ) ) ;
#129 = DIRECTION ( 'NONE',  ( -3.491481338843133355E-15, 1.224646799147353207E-16, -1.000000000000000000 ) ) ;
#130 = CARTESIAN_POINT ( 'NONE',  ( 0.0000000000000000000, 0.0000000000000000000, 0.0000000000000000000 ) ) ;
#131 = PERSON_AND_ORGANIZATION_ROLE ( 'design_owner' ) ;
#132 = CC_DESIGN_DATE_AND_TIME_ASSIGNMENT ( #53, #156, ( #237 ) ) ;
#133 = APPROVAL_STATUS ( 'not_yet_approved' ) ;
#134 = DIRECTION ( 'NONE',  ( -2.382254525458735219E-15, -0.7071067811865422437, -0.7071067811865527908 ) ) ;
#135 = DATE_AND_TIME ( #55, #247 ) ;
#136 = ADVANCED_FACE ( 'NONE', ( #316 ), #241, .T. ) ;
#137 = CARTESIAN_POINT ( 'NONE',  ( 3.735885032562152816E-13, -1.310372075087667979E-14, 107.0000000000000000 ) ) ;
#138 = CIRCLE ( 'NONE', #185, 6.749999999999996447 ) ;
#139 = DIRECTION ( 'NONE',  ( -3.491481338843133355E-15, 1.224646799147353207E-16, -1.000000000000000000 ) ) ;
#140 = ORIENTED_EDGE ( 'NONE', *, *, #261, .F. ) ;
#141 = EDGE_LOOP ( 'NONE', ( #232, #88, #140, #97 ) ) ;
#142 = EDGE_CURVE ( 'NONE', #246, #315, #46, .T. ) ;
#143 = DIRECTION ( 'NONE',  ( -3.491481338843133355E-15, 1.224646799147353207E-16, -1.000000000000000000 ) ) ;
#144 = CARTESIAN_POINT ( 'NONE',  ( 1.498741864984271093E-14, 6.749999999999992006, 4.055809178436073026 ) ) ;
#145 = EDGE_CURVE ( 'NONE', #117, #254, #102, .T. ) ;
#146 = DIRECTION ( 'NONE',  ( -4.275831445896958607E-31, -1.000000000000000000, -1.224646799147353207E-16 ) ) ;
#147 = COORDINATED_UNIVERSAL_TIME_OFFSET ( 1, 0, .AHEAD. ) ;
#148 = VECTOR ( 'NONE', #118, 1000.000000000000000 ) ;
#149 = DIRECTION ( 'NONE',  ( -3.491481338843133355E-15, 1.224646799147353207E-16, -1.000000000000000000 ) ) ;
#150 = AXIS2_PLACEMENT_3D ( 'NONE', #163, #31, #164 ) ;
#151 = CARTESIAN_POINT ( 'NONE',  ( 1.416078206041824552E-14, -4.966933728324191570E-16, 4.055809178436072138 ) ) ;
#152 = CIRCLE ( 'NONE', #87, 5.750000000000005329 ) ;
#153 = DIRECTION ( 'NONE',  ( -3.491481338843133355E-15, 1.224646799147353207E-16, -1.000000000000000000 ) ) ;
#154 = AXIS2_PLACEMENT_3D ( 'NONE', #17, #77, #43 ) ;
#155 = CC_DESIGN_PERSON_AND_ORGANIZATION_ASSIGNMENT ( #162, #305, ( #237 ) ) ;
#156 = DATE_TIME_ROLE ( 'creation_date' ) ;
#157 = DIRECTION ( 'NONE',  ( 0.0000000000000000000, 1.000000000000000000, 0.0000000000000000000 ) ) ;
#158 = DIRECTION ( 'NONE',  ( 0.0000000000000000000, 1.000000000000000000, 0.0000000000000000000 ) ) ;
#159 = EDGE_LOOP ( 'NONE', ( #282, #215 ) ) ;
#160 = SECURITY_CLASSIFICATION ( '', '', #174 ) ;
#161 = EDGE_CURVE ( 'NONE', #315, #246, #1, .T. ) ;
#162 = PERSON_AND_ORGANIZATION ( #63, #29 ) ;
#163 = CARTESIAN_POINT ( 'NONE',  ( 1.416078206041824552E-14, -4.966933728324191570E-16, 4.055809178436072138 ) ) ;
#164 = DIRECTION ( 'NONE',  ( -4.565167275584563568E-31, -1.000000000000000000, -1.284980352575413932E-16 ) ) ;
#165 = DATE_TIME_ROLE ( 'classification_date' ) ;
#166 = ORIENTED_EDGE ( 'NONE', *, *, #161, .T. ) ;
#167 = ADVANCED_FACE ( 'NONE', ( #180 ), #325, .F. ) ;
#168 = EDGE_CURVE ( 'NONE', #239, #111, #263, .T. ) ;
#169 = DIRECTION ( 'NONE',  ( -3.491481338843133355E-15, 1.224646799147353207E-16, -1.000000000000000000 ) ) ;
#170 = CIRCLE ( 'NONE', #40, 6.750000000000005329 ) ;
#171 = DIRECTION ( 'NONE',  ( 3.491481338843133355E-15, -1.224646799147353207E-16, 1.000000000000000000 ) ) ;
#172 = ORIENTED_EDGE ( 'NONE', *, *, #34, .T. ) ;
#173 = AXIS2_PLACEMENT_3D ( 'NONE', #4, #186, #64 ) ;
#174 = SECURITY_CLASSIFICATION_LEVEL ( 'unclassified' ) ;
#175 = EDGE_LOOP ( 'NONE', ( #71, #166, #268, #220 ) ) ;
#176 = CARTESIAN_POINT ( 'NONE',  ( 3.726081668362608223E-13, -5.750000000000017764, 107.0000000000000000 ) ) ;
#177 = MANIFOLD_SOLID_BREP ( 'Corps-Déplacer/Copier1[1]', #114 ) ;
#178 = DIRECTION ( 'NONE',  ( 4.275831445896958607E-31, 1.000000000000000000, 1.224646799147353207E-16 ) ) ;
#179 = EDGE_CURVE ( 'NONE', #317, #222, #238, .T. ) ;
#180 = FACE_OUTER_BOUND ( 'NONE', #51, .T. ) ;
#181 = MANIFOLD_SOLID_BREP ( 'Corps-Déplacer/Copier1[2]', #296 ) ;
#182 = PERSON_AND_ORGANIZATION ( #63, #29 ) ;
#183 = COORDINATED_UNIVERSAL_TIME_OFFSET ( 1, 0, .AHEAD. ) ;
#184 = CC_DESIGN_PERSON_AND_ORGANIZATION_ASSIGNMENT ( #15, #76, ( #160 ) ) ;
#185 = AXIS2_PLACEMENT_3D ( 'NONE', #2, #45, #75 ) ;
#186 = DIRECTION ( 'NONE',  ( -3.491481338843133355E-15, 1.224646799147353207E-16, -1.000000000000000000 ) ) ;
#187 = DIRECTION ( 'NONE',  ( 0.0000000000000000000, 0.0000000000000000000, 1.000000000000000000 ) ) ;
#188 = FACE_OUTER_BOUND ( 'NONE', #39, .T. ) ;
#189 = ORIENTED_EDGE ( 'NONE', *, *, #310, .T. ) ;
#190 = CC_DESIGN_APPROVAL ( #65, ( #237 ) ) ;
#191 = PERSON_AND_ORGANIZATION_ROLE ( 'design_supplier' ) ;
#192 = APPLICATION_CONTEXT ( 'configuration controlled 3d designs of mechanical parts and assemblies' ) ;
#193 = PERSON_AND_ORGANIZATION ( #63, #29 ) ;
#194 = PRODUCT_RELATED_PRODUCT_CATEGORY ( 'detail', '', ( #72 ) ) ;
#195 = EDGE_LOOP ( 'NONE', ( #8, #199, #16 ) ) ;
#196 = CONICAL_SURFACE ( 'NONE', #208, 5.750000000000005329, 0.7853981633974410625 ) ;
#197 = AXIS2_PLACEMENT_3D ( 'NONE', #301, #149, #127 ) ;
#198 = AXIS2_PLACEMENT_3D ( 'NONE', #86, #169, #41 ) ;
#199 = ORIENTED_EDGE ( 'NONE', *, *, #248, .T. ) ;
#200 = DIRECTION ( 'NONE',  ( -3.491481338843133355E-15, 1.224646799147353207E-16, -1.000000000000000000 ) ) ;
#201 = ADVANCED_FACE ( 'NONE', ( #12 ), #323, .T. ) ;
#202 = ORIENTED_EDGE ( 'NONE', *, *, #49, .T. ) ;
#203 = CALENDAR_DATE ( 2021, 3, 9 ) ;
#204 = CARTESIAN_POINT ( 'NONE',  ( 2.504675523167084214E-13, -6.750000000000000888, 37.00000000000000000 ) ) ;
#205 = ADVANCED_FACE ( 'NONE', ( #235 ), #27, .T. ) ;
#206 = APPLICATION_CONTEXT ( 'configuration controlled 3d designs of mechanical parts and assemblies' ) ;
#207 = LOCAL_TIME ( 9, 22, 38.00000000000000000, #147 ) ;
#208 = AXIS2_PLACEMENT_3D ( 'NONE', #67, #217, #69 ) ;
#209 = CYLINDRICAL_SURFACE ( 'NONE', #322, 6.749999999999994671 ) ;
#210 = ADVANCED_FACE ( 'NONE', ( #188 ), #62, .T. ) ;
#211 = APPROVAL_ROLE ( '' ) ;
#212 = APPROVAL_DATE_TIME ( #82, #65 ) ;
#213 = PRODUCT_DEFINITION_FORMATION_WITH_SPECIFIED_SOURCE ( 'ANY', '', #72, .NOT_KNOWN. ) ;
#214 = CARTESIAN_POINT ( 'NONE',  ( 3.742926751657250024E-13, -5.750000000000017764, 107.0000000000000000 ) ) ;
#215 = ORIENTED_EDGE ( 'NONE', *, *, #49, .F. ) ;
#216 = APPROVAL ( #236, 'UNSPECIFIED' ) ;
#217 = DIRECTION ( 'NONE',  ( -3.491481338843133355E-15, 1.224646799147353207E-16, -1.000000000000000000 ) ) ;
#218 = VERTEX_POINT ( 'NONE', #176 ) ;
#219 = AXIS2_PLACEMENT_3D ( 'NONE', #42, #171, #146 ) ;
#220 = ORIENTED_EDGE ( 'NONE', *, *, #227, .F. ) ;
#221 = DIRECTION ( 'NONE',  ( 3.491481338843133355E-15, -1.224646799147353207E-16, 1.000000000000000000 ) ) ;
#222 = VERTEX_POINT ( 'NONE', #204 ) ;
#223 = ORIENTED_EDGE ( 'NONE', *, *, #142, .F. ) ;
#224 = AXIS2_PLACEMENT_3D ( 'NONE', #302, #187, #233 ) ;
#225 = ORIENTED_EDGE ( 'NONE', *, *, #291, .F. ) ;
#226 = CC_DESIGN_SECURITY_CLASSIFICATION ( #160, ( #213 ) ) ;
#227 = EDGE_CURVE ( 'NONE', #254, #293, #50, .T. ) ;
#228 = FACE_OUTER_BOUND ( 'NONE', #141, .T. ) ;
#229 = APPLICATION_PROTOCOL_DEFINITION ( 'international standard', 'config_control_design', 1994, #206 ) ;
#230 = ADVANCED_BREP_SHAPE_REPRESENTATION ( '45725', ( #177, #181, #224 ), #33 ) ;
#231 = LINE ( 'NONE', #30, #121 ) ;
#232 = ORIENTED_EDGE ( 'NONE', *, *, #142, .T. ) ;
#233 = DIRECTION ( 'NONE',  ( 1.000000000000000000, 0.0000000000000000000, 0.0000000000000000000 ) ) ;
#234 = ADVANCED_FACE ( 'NONE', ( #228 ), #209, .T. ) ;
#235 = FACE_OUTER_BOUND ( 'NONE', #175, .T. ) ;
#236 = APPROVAL_STATUS ( 'not_yet_approved' ) ;
#237 = PRODUCT_DEFINITION ( 'UNKNOWN', '', #213, #107 ) ;
#238 = CIRCLE ( 'NONE', #197, 6.749999999999996447 ) ;
#239 = VERTEX_POINT ( 'NONE', #119 ) ;
#240 = LINE ( 'NONE', #311, #267 ) ;
#241 = CONICAL_SURFACE ( 'NONE', #116, 6.749999999999992895, 1.029744258676649649 ) ;
#242 = ORIENTED_EDGE ( 'NONE', *, *, #125, .F. ) ;
#243 = ORIENTED_EDGE ( 'NONE', *, *, #248, .F. ) ;
#244 = ORIENTED_EDGE ( 'NONE', *, *, #306, .F. ) ;
#245 = CC_DESIGN_PERSON_AND_ORGANIZATION_ASSIGNMENT ( #182, #191, ( #213 ) ) ;
#246 = VERTEX_POINT ( 'NONE', #124 ) ;
#247 = LOCAL_TIME ( 9, 22, 38.00000000000000000, #277 ) ;
#248 = EDGE_CURVE ( 'NONE', #117, #293, #297, .T. ) ;
#249 = CARTESIAN_POINT ( 'NONE',  ( 2.886186225980447278E-30, 6.750000000000000888, 8.266365894244635319E-16 ) ) ;
#250 = DIRECTION ( 'NONE',  ( 0.0000000000000000000, 1.000000000000000000, 0.0000000000000000000 ) ) ;
#251 = DIRECTION ( 'NONE',  ( 3.491481338843133355E-15, -1.224646799147353207E-16, 1.000000000000000000 ) ) ;
#252 = PERSON_AND_ORGANIZATION ( #63, #29 ) ;
#253 = ADVANCED_FACE ( 'NONE', ( #89 ), #314, .F. ) ;
#254 = VERTEX_POINT ( 'NONE', #56 ) ;
#255 = APPROVAL_DATE_TIME ( #135, #14 ) ;
#256 = LOCAL_TIME ( 9, 22, 38.00000000000000000, #183 ) ;
#257 = ORIENTED_EDGE ( 'NONE', *, *, #168, .F. ) ;
#258 = APPROVAL_ROLE ( '' ) ;
#259 = DIRECTION ( 'NONE',  ( -3.491481338843133355E-15, 1.224646799147353207E-16, -1.000000000000000000 ) ) ;
#260 = CARTESIAN_POINT ( 'NONE',  ( 3.735885032562152816E-13, 5.749999999999992006, 107.0000000000000000 ) ) ;
#261 = EDGE_CURVE ( 'NONE', #293, #254, #308, .T. ) ;
#262 = LINE ( 'NONE', #32, #126 ) ;
#263 = CIRCLE ( 'NONE', #198, 6.750000000000005329 ) ;
#264 = CYLINDRICAL_SURFACE ( 'NONE', #35, 6.750000000000000888 ) ;
#265 = DIRECTION ( 'NONE',  ( 4.565167275584563568E-31, 1.000000000000000000, 1.284980352575413932E-16 ) ) ;
#266 = ORIENTED_EDGE ( 'NONE', *, *, #179, .T. ) ;
#267 = VECTOR ( 'NONE', #10, 1000.000000000000000 ) ;
#268 = ORIENTED_EDGE ( 'NONE', *, *, #38, .T. ) ;
#269 = CARTESIAN_POINT ( 'NONE',  ( 1.498741864984271093E-14, 6.749999999999992006, 4.055809178436073026 ) ) ;
#270 = VECTOR ( 'NONE', #101, 1000.000000000000000 ) ;
#271 = DIRECTION ( 'NONE',  ( -2.468850131082283487E-15, 0.7071067811865424657, -0.7071067811865526798 ) ) ;
#272 = AXIS2_PLACEMENT_3D ( 'NONE', #9, #298, #178 ) ;
#273 = CARTESIAN_POINT ( 'NONE',  ( 0.0000000000000000000, 0.0000000000000000000, 0.0000000000000000000 ) ) ;
#274 = EDGE_LOOP ( 'NONE', ( #242, #6, #335, #225 ) ) ;
#275 =( NAMED_UNIT ( * ) SI_UNIT ( $, .STERADIAN. ) SOLID_ANGLE_UNIT ( ) );
#276 = ORIENTED_EDGE ( 'NONE', *, *, #179, .F. ) ;
#277 = COORDINATED_UNIVERSAL_TIME_OFFSET ( 1, 0, .AHEAD. ) ;
#278 = CARTESIAN_POINT ( 'NONE',  ( 0.0000000000000000000, 0.0000000000000000000, 0.0000000000000000000 ) ) ;
#279 = PERSON_AND_ORGANIZATION ( #63, #29 ) ;
#280 = CARTESIAN_POINT ( 'NONE',  ( 1.416078206041824552E-14, -4.966933728324191570E-16, 4.055809178436072138 ) ) ;
#281 = AXIS2_PLACEMENT_3D ( 'NONE', #280, #13, #265 ) ;
#282 = ORIENTED_EDGE ( 'NONE', *, *, #34, .F. ) ;
#283 = DATE_AND_TIME ( #93, #108 ) ;
#284 = DIRECTION ( 'NONE',  ( -3.491481338843133355E-15, 1.224646799147353207E-16, -1.000000000000000000 ) ) ;
#285 = CARTESIAN_POINT ( 'NONE',  ( 0.0000000000000000000, 0.0000000000000000000, 0.0000000000000000000 ) ) ;
#286 = ORIENTED_EDGE ( 'NONE', *, *, #318, .F. ) ;
#287 = APPROVAL_DATE_TIME ( #115, #216 ) ;
#288 = CONICAL_SURFACE ( 'NONE', #150, 6.749999999999992895, 1.029744258676649649 ) ;
#289 = FACE_OUTER_BOUND ( 'NONE', #320, .T. ) ;
#290 = ORIENTED_EDGE ( 'NONE', *, *, #306, .T. ) ;
#291 = EDGE_CURVE ( 'NONE', #222, #317, #138, .T. ) ;
#292 = ORIENTED_EDGE ( 'NONE', *, *, #310, .F. ) ;
#293 = VERTEX_POINT ( 'NONE', #144 ) ;
#294 = AXIS2_PLACEMENT_3D ( 'NONE', #273, #284, #333 ) ;
#295 = CC_DESIGN_PERSON_AND_ORGANIZATION_ASSIGNMENT ( #279, #131, ( #72 ) ) ;
#296 = CLOSED_SHELL ( 'NONE', ( #234, #136, #113, #205, #201 ) ) ;
#297 = LINE ( 'NONE', #269, #79 ) ;
#298 = DIRECTION ( 'NONE',  ( -3.491481338843133355E-15, 1.224646799147353207E-16, -1.000000000000000000 ) ) ;
#299 = DIRECTION ( 'NONE',  ( -3.491481338843133355E-15, 1.224646799147353207E-16, -1.000000000000000000 ) ) ;
#300 = CC_DESIGN_APPROVAL ( #14, ( #213 ) ) ;
#301 = CARTESIAN_POINT ( 'NONE',  ( 1.291848095371959215E-13, -4.531193156845206793E-15, 37.00000000000000000 ) ) ;
#302 = CARTESIAN_POINT ( 'NONE',  ( 0.0000000000000000000, 0.0000000000000000000, 0.0000000000000000000 ) ) ;
#303 = CARTESIAN_POINT ( 'NONE',  ( 7.249943238823152842E-14, -6.750000000000000000, 37.00000000000000000 ) ) ;
#304 = DIRECTION ( 'NONE',  ( -3.491481338843133355E-15, 1.224646799147353207E-16, -1.000000000000000000 ) ) ;
#305 = PERSON_AND_ORGANIZATION_ROLE ( 'creator' ) ;
#306 = EDGE_CURVE ( 'NONE', #74, #111, #231, .T. ) ;
#307 = DIRECTION ( 'NONE',  ( -3.491481338843133355E-15, 1.224646799147353207E-16, -1.000000000000000000 ) ) ;
#308 = CIRCLE ( 'NONE', #281, 6.749999999999992895 ) ;
#309 = ORIENTED_EDGE ( 'NONE', *, *, #291, .T. ) ;
#310 = EDGE_CURVE ( 'NONE', #111, #239, #170, .T. ) ;
#311 = CARTESIAN_POINT ( 'NONE',  ( 8.266365894244599821E-16, -6.749999999999994671, -8.266365894244656027E-16 ) ) ;
#312 = ORIENTED_EDGE ( 'NONE', *, *, #321, .T. ) ;
#313 = DIRECTION ( 'NONE',  ( 4.275831445896958607E-31, 1.000000000000000000, 1.224646799147353207E-16 ) ) ;
#314 = PLANE ( 'NONE',  #272 ) ;
#315 = VERTEX_POINT ( 'NONE', #303 ) ;
#316 = FACE_OUTER_BOUND ( 'NONE', #195, .T. ) ;
#317 = VERTEX_POINT ( 'NONE', #84 ) ;
#318 = EDGE_CURVE ( 'NONE', #111, #317, #48, .T. ) ;
#319 = AXIS2_PLACEMENT_3D ( 'NONE', #47, #307, #157 ) ;
#320 = EDGE_LOOP ( 'NONE', ( #172, #312, #292, #244 ) ) ;
#321 = EDGE_CURVE ( 'NONE', #218, #239, #58, .T. ) ;
#322 = AXIS2_PLACEMENT_3D ( 'NONE', #130, #129, #91 ) ;
#323 = PLANE ( 'NONE',  #44 ) ;
#324 = ORIENTED_EDGE ( 'NONE', *, *, #227, .T. ) ;
#325 = PLANE ( 'NONE',  #219 ) ;
#326 = APPROVAL_PERSON_ORGANIZATION ( #105, #65, #211 ) ;
#327 = APPLICATION_PROTOCOL_DEFINITION ( 'international standard', 'config_control_design', 1994, #192 ) ;
#328 = UNCERTAINTY_MEASURE_WITH_UNIT (LENGTH_MEASURE( 1.000000000000000082E-05 ), #20, 'distance_accuracy_value', 'NONE');
#329 = CC_DESIGN_DATE_AND_TIME_ASSIGNMENT ( #283, #165, ( #160 ) ) ;
#330 = COORDINATED_UNIVERSAL_TIME_OFFSET ( 1, 0, .AHEAD. ) ;
#331 =( NAMED_UNIT ( * ) PLANE_ANGLE_UNIT ( ) SI_UNIT ( $, .RADIAN. ) );
#332 = AXIS2_PLACEMENT_3D ( 'NONE', #278, #200, #128 ) ;
#333 = DIRECTION ( 'NONE',  ( 4.275831445896958607E-31, 1.000000000000000000, 1.224646799147353207E-16 ) ) ;
#334 = MECHANICAL_CONTEXT ( 'NONE', #192, 'mechanical' ) ;
#335 = ORIENTED_EDGE ( 'NONE', *, *, #318, .T. ) ;
#336 = APPROVAL_ROLE ( '' ) ;
#337 = COORDINATED_UNIVERSAL_TIME_OFFSET ( 1, 0, .AHEAD. ) ;
ENDSEC;
END-ISO-10303-21;
