ISO-10303-21;
HEADER;
FILE_DESCRIPTION (( 'STEP AP203' ),
    '1' );
FILE_NAME ('45724.step',
    '2021-09-03T07:22:37',
    ( '' ),
    ( '' ),
    'SwSTEP 2.0',
    'SolidWorks 2019',
    '' );
FILE_SCHEMA (( 'CONFIG_CONTROL_DESIGN' ));
ENDSEC;

DATA;
#1 = LOCAL_TIME ( 9, 22, 37.00000000000000000, #209 ) ;
#2 = DIRECTION ( 'NONE',  ( 4.275831445896958607E-31, 1.000000000000000000, 1.224646799147353207E-16 ) ) ;
#3 = DIRECTION ( 'NONE',  ( 5.406119142139622933E-31, 1.000000000000000000, 1.521687259628781959E-16 ) ) ;
#4 = DIRECTION ( 'NONE',  ( 0.0000000000000000000, 1.000000000000000000, 0.0000000000000000000 ) ) ;
#5 = ADVANCED_FACE ( 'NONE', ( #268 ), #170, .T. ) ;
#6 = CARTESIAN_POINT ( 'NONE',  ( 7.332110811570580046E-14, -2.571758278209441661E-15, 21.00000000000000000 ) ) ;
#7 = ORIENTED_EDGE ( 'NONE', *, *, #132, .F. ) ;
#8 = DIRECTION ( 'NONE',  ( -3.491481338843133355E-15, 1.224646799147353207E-16, -1.000000000000000000 ) ) ;
#9 = DIRECTION ( 'NONE',  ( 0.0000000000000000000, 1.000000000000000000, 0.0000000000000000000 ) ) ;
#10 =( LENGTH_UNIT ( ) NAMED_UNIT ( * ) SI_UNIT ( .MILLI., .METRE. ) );
#11 = ORIENTED_EDGE ( 'NONE', *, *, #95, .T. ) ;
#12 = DIRECTION ( 'NONE',  ( 4.275831445896958607E-31, 1.000000000000000000, 1.224646799147353207E-16 ) ) ;
#13 = CARTESIAN_POINT ( 'NONE',  ( 5.978996869954362127E-15, -2.097149796403544435E-16, 1.712452764228561186 ) ) ;
#14 = LOCAL_TIME ( 9, 22, 37.00000000000000000, #149 ) ;
#15 = ORIENTED_EDGE ( 'NONE', *, *, #293, .F. ) ;
#16 = DIRECTION ( 'NONE',  ( -5.406119142139622933E-31, -1.000000000000000000, -1.521687259628781959E-16 ) ) ;
#17 = EDGE_LOOP ( 'NONE', ( #7, #125, #229, #42 ) ) ;
#18 = ORIENTED_EDGE ( 'NONE', *, *, #23, .F. ) ;
#19 = APPROVAL_DATE_TIME ( #77, #49 ) ;
#20 = CONICAL_SURFACE ( 'NONE', #123, 2.849999999999992983, 1.029744258676649871 ) ;
#21 = EDGE_LOOP ( 'NONE', ( #276, #243 ) ) ;
#22 = ORIENTED_EDGE ( 'NONE', *, *, #334, .F. ) ;
#23 = EDGE_CURVE ( 'NONE', #262, #194, #219, .T. ) ;
#24 = PERSON_AND_ORGANIZATION ( #336, #135 ) ;
#25 = PLANE ( 'NONE',  #300 ) ;
#26 = DIRECTION ( 'NONE',  ( -3.491481338843133355E-15, 1.224646799147353207E-16, -1.000000000000000000 ) ) ;
#27 = SHAPE_DEFINITION_REPRESENTATION ( #235, #137 ) ;
#28 = CARTESIAN_POINT ( 'NONE',  ( 1.218611962080630987E-30, 2.849999999999994316, 3.490243377569950145E-16 ) ) ;
#29 = CARTESIAN_POINT ( 'NONE',  ( 2.304377683636468267E-13, 2.249999999999993339, 66.00000000000000000 ) ) ;
#30 = AXIS2_PLACEMENT_3D ( 'NONE', #281, #275, #236 ) ;
#31 = ORIENTED_EDGE ( 'NONE', *, *, #35, .T. ) ;
#32 = PERSON_AND_ORGANIZATION ( #336, #135 ) ;
#33 = CARTESIAN_POINT ( 'NONE',  ( 2.304377683636468267E-13, -8.082668874372532400E-15, 66.00000000000000000 ) ) ;
#34 = DIRECTION ( 'NONE',  ( -3.491481338843133355E-15, 1.224646799147353207E-16, -1.000000000000000000 ) ) ;
#35 = EDGE_CURVE ( 'NONE', #260, #237, #240, .T. ) ;
#36 = ORIENTED_EDGE ( 'NONE', *, *, #291, .F. ) ;
#37 = DIRECTION ( 'NONE',  ( 0.0000000000000000000, 1.000000000000000000, 0.0000000000000000000 ) ) ;
#38 = ORIENTED_EDGE ( 'NONE', *, *, #214, .T. ) ;
#39 = ORIENTED_EDGE ( 'NONE', *, *, #307, .T. ) ;
#40 = ADVANCED_FACE ( 'NONE', ( #270 ), #292, .F. ) ;
#41 = DIRECTION ( 'NONE',  ( 0.0000000000000000000, 1.000000000000000000, 0.0000000000000000000 ) ) ;
#42 = ORIENTED_EDGE ( 'NONE', *, *, #238, .F. ) ;
#43 = PRODUCT ( '45724', '45724', '', ( #335 ) ) ;
#44 = CARTESIAN_POINT ( 'NONE',  ( 2.304377683636468267E-13, -8.082668874372532400E-15, 66.00000000000000000 ) ) ;
#45 = DIRECTION ( 'NONE',  ( 0.0000000000000000000, 1.000000000000000000, 0.0000000000000000000 ) ) ;
#46 = DIRECTION ( 'NONE',  ( -5.406119142139622933E-31, -1.000000000000000000, -1.521687259628781959E-16 ) ) ;
#47 = CARTESIAN_POINT ( 'NONE',  ( 5.978996869954360549E-15, -2.849999999999992983, 1.712452764228560742 ) ) ;
#48 = PERSON_AND_ORGANIZATION ( #336, #135 ) ;
#49 = APPROVAL ( #330, 'UNSPECIFIED' ) ;
#50 = ORIENTED_EDGE ( 'NONE', *, *, #167, .F. ) ;
#51 = SECURITY_CLASSIFICATION_LEVEL ( 'unclassified' ) ;
#52 = CONICAL_SURFACE ( 'NONE', #129, 2.849999999999992983, 1.029744258676649871 ) ;
#53 = CARTESIAN_POINT ( 'NONE',  ( 0.0000000000000000000, 0.0000000000000000000, 0.0000000000000000000 ) ) ;
#54 = VERTEX_POINT ( 'NONE', #57 ) ;
#55 = VECTOR ( 'NONE', #64, 1000.000000000000114 ) ;
#56 = DIRECTION ( 'NONE',  ( -3.491481338843133355E-15, 1.224646799147353207E-16, -1.000000000000000000 ) ) ;
#57 = CARTESIAN_POINT ( 'NONE',  ( 6.328021207711357930E-15, 2.849999999999992983, 1.712452764228561630 ) ) ;
#58 = DIRECTION ( 'NONE',  ( -3.491481338843133355E-15, 1.224646799147353207E-16, -1.000000000000000000 ) ) ;
#59 = CIRCLE ( 'NONE', #106, 2.849999999999995648 ) ;
#60 = CARTESIAN_POINT ( 'NONE',  ( 2.304377683636468267E-13, 1.687229755494578587E-32, 66.00000000000000000 ) ) ;
#61 = CARTESIAN_POINT ( 'NONE',  ( 5.978996869954360549E-15, -2.849999999999992983, 1.712452764228560742 ) ) ;
#62 = DIRECTION ( 'NONE',  ( 4.275831445896959482E-31, 1.000000000000000000, 1.224646799147353454E-16 ) ) ;
#63 = ADVANCED_FACE ( 'NONE', ( #257 ), #298, .T. ) ;
#64 = DIRECTION ( 'NONE',  ( 1.903218546456021928E-15, 0.8571673007021098911, 0.5150380749100583744 ) ) ;
#65 = CARTESIAN_POINT ( 'NONE',  ( 2.283428795603408836E-13, -8.009190066423689102E-15, 65.40000000000000568 ) ) ;
#66 = EDGE_LOOP ( 'NONE', ( #31, #102, #265, #267 ) ) ;
#67 = ORIENTED_EDGE ( 'NONE', *, *, #23, .T. ) ;
#68 = DIRECTION ( 'NONE',  ( -3.491481338843133355E-15, 1.224646799147353207E-16, -1.000000000000000000 ) ) ;
#69 = DIRECTION ( 'NONE',  ( 3.491481338843133355E-15, -1.224646799147353207E-16, 1.000000000000000000 ) ) ;
#70 = VECTOR ( 'NONE', #113, 1000.000000000000114 ) ;
#71 = DIRECTION ( 'NONE',  ( 3.491481338843133355E-15, -1.224646799147353207E-16, 1.000000000000000000 ) ) ;
#72 = CARTESIAN_POINT ( 'NONE',  ( 7.332110811570580046E-14, 2.137157690293140249E-32, 21.00000000000000000 ) ) ;
#73 = VECTOR ( 'NONE', #195, 1000.000000000000000 ) ;
#74 = PRODUCT_RELATED_PRODUCT_CATEGORY ( 'detail', '', ( #43 ) ) ;
#75 = PERSON_AND_ORGANIZATION_ROLE ( 'creator' ) ;
#76 = ORIENTED_EDGE ( 'NONE', *, *, #291, .T. ) ;
#77 = DATE_AND_TIME ( #99, #213 ) ;
#78 = VERTEX_POINT ( 'NONE', #309 ) ;
#79 = DATE_TIME_ROLE ( 'classification_date' ) ;
#80 = DIRECTION ( 'NONE',  ( -3.491481338843133355E-15, 1.224646799147353207E-16, -1.000000000000000000 ) ) ;
#81 = ORIENTED_EDGE ( 'NONE', *, *, #127, .F. ) ;
#82 = AXIS2_PLACEMENT_3D ( 'NONE', #33, #104, #314 ) ;
#83 = ORIENTED_EDGE ( 'NONE', *, *, #115, .F. ) ;
#84 = DIRECTION ( 'NONE',  ( -3.491481338843133355E-15, 1.224646799147353207E-16, -1.000000000000000000 ) ) ;
#85 = DIRECTION ( 'NONE',  ( -3.491481338843133355E-15, 1.224646799147353207E-16, -1.000000000000000000 ) ) ;
#86 = DIRECTION ( 'NONE',  ( 4.275831445896958607E-31, 1.000000000000000000, 1.224646799147353207E-16 ) ) ;
#87 = DIRECTION ( 'NONE',  ( -3.491481338843133355E-15, 1.224646799147353207E-16, -1.000000000000000000 ) ) ;
#88 = FACE_OUTER_BOUND ( 'NONE', #197, .T. ) ;
#89 = CARTESIAN_POINT ( 'NONE',  ( 2.304377683636468267E-13, -8.082668874372532400E-15, 66.00000000000000000 ) ) ;
#90 = AXIS2_PLACEMENT_3D ( 'NONE', #221, #172, #41 ) ;
#91 = AXIS2_PLACEMENT_3D ( 'NONE', #145, #80, #168 ) ;
#92 = ADVANCED_FACE ( 'NONE', ( #185 ), #134, .F. ) ;
#93 = FACE_OUTER_BOUND ( 'NONE', #247, .T. ) ;
#94 = DIRECTION ( 'NONE',  ( -3.491481338843133355E-15, 1.224646799147353207E-16, -1.000000000000000000 ) ) ;
#95 = EDGE_CURVE ( 'NONE', #122, #248, #295, .T. ) ;
#96 = CIRCLE ( 'NONE', #294, 2.849999999999995648 ) ;
#97 =( NAMED_UNIT ( * ) SI_UNIT ( $, .STERADIAN. ) SOLID_ANGLE_UNIT ( ) );
#98 = CARTESIAN_POINT ( 'NONE',  ( 0.0000000000000000000, 0.0000000000000000000, 0.0000000000000000000 ) ) ;
#99 = CALENDAR_DATE ( 2021, 3, 9 ) ;
#100 = EDGE_CURVE ( 'NONE', #194, #54, #202, .T. ) ;
#101 = AXIS2_PLACEMENT_3D ( 'NONE', #107, #290, #3 ) ;
#102 = ORIENTED_EDGE ( 'NONE', *, *, #175, .T. ) ;
#103 = APPROVAL_DATE_TIME ( #278, #196 ) ;
#104 = DIRECTION ( 'NONE',  ( -3.491481338843133355E-15, 1.224646799147353207E-16, -1.000000000000000000 ) ) ;
#105 = CC_DESIGN_PERSON_AND_ORGANIZATION_ASSIGNMENT ( #189, #272, ( #43 ) ) ;
#106 = AXIS2_PLACEMENT_3D ( 'NONE', #177, #169, #45 ) ;
#107 = CARTESIAN_POINT ( 'NONE',  ( 5.978996869954362127E-15, -2.097149796403544435E-16, 1.712452764228561186 ) ) ;
#108 = DIRECTION ( 'NONE',  ( 3.491481338843133355E-15, -1.224646799147353207E-16, 1.000000000000000000 ) ) ;
#109 = FACE_OUTER_BOUND ( 'NONE', #66, .T. ) ;
#110 = ORIENTED_EDGE ( 'NONE', *, *, #245, .T. ) ;
#111 = CIRCLE ( 'NONE', #116, 2.250000000000001776 ) ;
#112 = CARTESIAN_POINT ( 'NONE',  ( 1.511810181757801958E-13, -2.850000000000008971, 65.40000000000000568 ) ) ;
#113 = DIRECTION ( 'NONE',  ( -2.382254525458724175E-15, -0.7071067811865451302, -0.7071067811865499042 ) ) ;
#114 = DIRECTION ( 'NONE',  ( -4.275831445896958607E-31, -1.000000000000000000, -1.224646799147353207E-16 ) ) ;
#115 = EDGE_CURVE ( 'NONE', #288, #54, #261, .T. ) ;
#116 = AXIS2_PLACEMENT_3D ( 'NONE', #44, #299, #9 ) ;
#117 = CARTESIAN_POINT ( 'NONE',  ( 5.978996869954362127E-15, -2.097149796403544435E-16, 1.712452764228561186 ) ) ;
#118 = DIRECTION ( 'NONE',  ( -2.468850131082272838E-15, 0.7071067811865453523, -0.7071067811865496822 ) ) ;
#119 = CARTESIAN_POINT ( 'NONE',  ( 0.0000000000000000000, 0.0000000000000000000, 0.0000000000000000000 ) ) ;
#120 = ORIENTED_EDGE ( 'NONE', *, *, #334, .T. ) ;
#121 = DIRECTION ( 'NONE',  ( -3.491481338843133355E-15, 1.224646799147353207E-16, -1.000000000000000000 ) ) ;
#122 = VERTEX_POINT ( 'NONE', #215 ) ;
#123 = AXIS2_PLACEMENT_3D ( 'NONE', #13, #71, #46 ) ;
#124 = PERSON_AND_ORGANIZATION ( #336, #135 ) ;
#125 = ORIENTED_EDGE ( 'NONE', *, *, #127, .T. ) ;
#126 = DATE_AND_TIME ( #301, #1 ) ;
#127 = EDGE_CURVE ( 'NONE', #248, #122, #148, .T. ) ;
#128 = PERSON_AND_ORGANIZATION_ROLE ( 'design_supplier' ) ;
#129 = AXIS2_PLACEMENT_3D ( 'NONE', #117, #327, #16 ) ;
#130 = AXIS2_PLACEMENT_3D ( 'NONE', #60, #85, #2 ) ;
#131 = APPROVAL_STATUS ( 'not_yet_approved' ) ;
#132 = EDGE_CURVE ( 'NONE', #248, #164, #139, .T. ) ;
#133 = EDGE_LOOP ( 'NONE', ( #15, #158, #188 ) ) ;
#134 = PLANE ( 'NONE',  #130 ) ;
#135 = ORGANIZATION ( 'UNSPECIFIED', 'UNSPECIFIED', '' ) ;
#136 = CARTESIAN_POINT ( 'NONE',  ( 1.218611962080632388E-30, 2.849999999999998312, 3.490243377569954582E-16 ) ) ;
#137 = ADVANCED_BREP_SHAPE_REPRESENTATION ( '45724', ( #274, #174, #225 ), #151 ) ;
#138 = CC_DESIGN_PERSON_AND_ORGANIZATION_ASSIGNMENT ( #32, #128, ( #322 ) ) ;
#139 = LINE ( 'NONE', #241, #171 ) ;
#140 = ORIENTED_EDGE ( 'NONE', *, *, #180, .F. ) ;
#141 =( NAMED_UNIT ( * ) PLANE_ANGLE_UNIT ( ) SI_UNIT ( $, .RADIAN. ) );
#142 = CC_DESIGN_APPROVAL ( #49, ( #166 ) ) ;
#143 = ORIENTED_EDGE ( 'NONE', *, *, #175, .F. ) ;
#144 = CC_DESIGN_PERSON_AND_ORGANIZATION_ASSIGNMENT ( #24, #157, ( #166 ) ) ;
#145 = CARTESIAN_POINT ( 'NONE',  ( 7.332110811570580046E-14, -2.571758278209441661E-15, 21.00000000000000000 ) ) ;
#146 = FACE_OUTER_BOUND ( 'NONE', #133, .T. ) ;
#147 = FACE_OUTER_BOUND ( 'NONE', #220, .T. ) ;
#148 = CIRCLE ( 'NONE', #318, 2.850000000000000977 ) ;
#149 = COORDINATED_UNIVERSAL_TIME_OFFSET ( 1, 0, .AHEAD. ) ;
#150 = ORIENTED_EDGE ( 'NONE', *, *, #35, .F. ) ;
#151 =( GEOMETRIC_REPRESENTATION_CONTEXT ( 3 ) GLOBAL_UNCERTAINTY_ASSIGNED_CONTEXT ( ( #303 ) ) GLOBAL_UNIT_ASSIGNED_CONTEXT ( ( #10, #141, #97 ) ) REPRESENTATION_CONTEXT ( 'NONE', 'WORKASPACE' ) );
#152 = COORDINATED_UNIVERSAL_TIME_OFFSET ( 1, 0, .AHEAD. ) ;
#153 = ADVANCED_FACE ( 'NONE', ( #109 ), #286, .T. ) ;
#154 = APPLICATION_PROTOCOL_DEFINITION ( 'international standard', 'config_control_design', 1994, #216 ) ;
#155 = LINE ( 'NONE', #28, #203 ) ;
#156 = CARTESIAN_POINT ( 'NONE',  ( 2.283428795603408836E-13, -8.009190066423689102E-15, 65.40000000000000568 ) ) ;
#157 = PERSON_AND_ORGANIZATION_ROLE ( 'creator' ) ;
#158 = ORIENTED_EDGE ( 'NONE', *, *, #115, .T. ) ;
#159 = ADVANCED_FACE ( 'NONE', ( #259 ), #269, .T. ) ;
#160 = APPLICATION_PROTOCOL_DEFINITION ( 'international standard', 'config_control_design', 1994, #323 ) ;
#161 = DIRECTION ( 'NONE',  ( 0.0000000000000000000, 1.000000000000000000, 0.0000000000000000000 ) ) ;
#162 = CARTESIAN_POINT ( 'NONE',  ( 1.511810181757802968E-13, -2.849999999999998312, 21.00000000000000000 ) ) ;
#163 = AXIS2_PLACEMENT_3D ( 'NONE', #72, #69, #244 ) ;
#164 = VERTEX_POINT ( 'NONE', #162 ) ;
#165 = VECTOR ( 'NONE', #118, 1000.000000000000000 ) ;
#166 = PRODUCT_DEFINITION ( 'UNKNOWN', '', #322, #333 ) ;
#167 = EDGE_CURVE ( 'NONE', #122, #255, #263, .T. ) ;
#168 = DIRECTION ( 'NONE',  ( 0.0000000000000000000, 1.000000000000000000, 0.0000000000000000000 ) ) ;
#169 = DIRECTION ( 'NONE',  ( -3.491481338843133355E-15, 1.224646799147353207E-16, -1.000000000000000000 ) ) ;
#170 = CYLINDRICAL_SURFACE ( 'NONE', #181, 2.849999999999998312 ) ;
#171 = VECTOR ( 'NONE', #8, 1000.000000000000000 ) ;
#172 = DIRECTION ( 'NONE',  ( -3.491481338843133355E-15, 1.224646799147353207E-16, -1.000000000000000000 ) ) ;
#173 = CARTESIAN_POINT ( 'NONE',  ( 2.304377683636468267E-13, 2.249999999999993339, 66.00000000000000000 ) ) ;
#174 = MANIFOLD_SOLID_BREP ( 'Corps-Déplacer/Copier1[2]', #297 ) ;
#175 = EDGE_CURVE ( 'NONE', #237, #248, #287, .T. ) ;
#176 = CIRCLE ( 'NONE', #232, 2.849999999999992983 ) ;
#177 = CARTESIAN_POINT ( 'NONE',  ( 7.332110811570580046E-14, -2.571758278209441661E-15, 21.00000000000000000 ) ) ;
#178 = ORIENTED_EDGE ( 'NONE', *, *, #293, .T. ) ;
#179 = APPROVAL_DATE_TIME ( #126, #279 ) ;
#180 = EDGE_CURVE ( 'NONE', #54, #194, #176, .T. ) ;
#181 = AXIS2_PLACEMENT_3D ( 'NONE', #246, #324, #12 ) ;
#182 = ORIENTED_EDGE ( 'NONE', *, *, #100, .F. ) ;
#183 = SECURITY_CLASSIFICATION ( '', '', #51 ) ;
#184 = DATE_TIME_ROLE ( 'creation_date' ) ;
#185 = FACE_OUTER_BOUND ( 'NONE', #206, .T. ) ;
#186 = VECTOR ( 'NONE', #68, 1000.000000000000000 ) ;
#187 = CARTESIAN_POINT ( 'NONE',  ( 3.999907683058704239E-14, -2.849999999999998312, 21.00000000000000000 ) ) ;
#188 = ORIENTED_EDGE ( 'NONE', *, *, #180, .T. ) ;
#189 = PERSON_AND_ORGANIZATION ( #336, #135 ) ;
#190 = AXIS2_PLACEMENT_3D ( 'NONE', #119, #121, #86 ) ;
#191 = CC_DESIGN_DATE_AND_TIME_ASSIGNMENT ( #331, #184, ( #166 ) ) ;
#192 = VECTOR ( 'NONE', #34, 1000.000000000000000 ) ;
#193 = APPROVAL_PERSON_ORGANIZATION ( #312, #196, #310 ) ;
#194 = VERTEX_POINT ( 'NONE', #47 ) ;
#195 = DIRECTION ( 'NONE',  ( 1.798245827342159528E-15, -0.8571673007021100021, 0.5150380749100580413 ) ) ;
#196 = APPROVAL ( #273, 'UNSPECIFIED' ) ;
#197 = EDGE_LOOP ( 'NONE', ( #76, #67, #140, #227 ) ) ;
#198 = AXIS2_PLACEMENT_3D ( 'NONE', #89, #58, #161 ) ;
#199 = CC_DESIGN_APPROVAL ( #279, ( #322 ) ) ;
#200 = LINE ( 'NONE', #173, #165 ) ;
#201 = CC_DESIGN_DATE_AND_TIME_ASSIGNMENT ( #252, #79, ( #183 ) ) ;
#202 = CIRCLE ( 'NONE', #101, 2.849999999999992983 ) ;
#203 = VECTOR ( 'NONE', #94, 1000.000000000000000 ) ;
#204 = FACE_OUTER_BOUND ( 'NONE', #210, .T. ) ;
#205 = APPROVAL_ROLE ( '' ) ;
#206 = EDGE_LOOP ( 'NONE', ( #150, #311 ) ) ;
#207 = APPROVAL_ROLE ( '' ) ;
#208 = ORIENTED_EDGE ( 'NONE', *, *, #234, .F. ) ;
#209 = COORDINATED_UNIVERSAL_TIME_OFFSET ( 1, 0, .AHEAD. ) ;
#210 = EDGE_LOOP ( 'NONE', ( #11, #223, #208, #50 ) ) ;
#211 = LOCAL_TIME ( 9, 22, 37.00000000000000000, #152 ) ;
#212 = COORDINATED_UNIVERSAL_TIME_OFFSET ( 1, 0, .AHEAD. ) ;
#213 = LOCAL_TIME ( 9, 22, 37.00000000000000000, #212 ) ;
#214 = EDGE_CURVE ( 'NONE', #78, #54, #155, .T. ) ;
#215 = CARTESIAN_POINT ( 'NONE',  ( 2.283428795603408836E-13, 2.849999999999992983, 65.40000000000000568 ) ) ;
#216 = APPLICATION_CONTEXT ( 'configuration controlled 3d designs of mechanical parts and assemblies' ) ;
#217 = CIRCLE ( 'NONE', #30, 2.849999999999995648 ) ;
#218 = CARTESIAN_POINT ( 'NONE',  ( 7.332110811570580046E-14, 2.849999999999992983, 21.00000000000000000 ) ) ;
#219 = LINE ( 'NONE', #328, #186 ) ;
#220 = EDGE_LOOP ( 'NONE', ( #36, #22 ) ) ;
#221 = CARTESIAN_POINT ( 'NONE',  ( 2.304377683636468267E-13, -8.082668874372532400E-15, 66.00000000000000000 ) ) ;
#222 = CC_DESIGN_PERSON_AND_ORGANIZATION_ASSIGNMENT ( #124, #75, ( #322 ) ) ;
#223 = ORIENTED_EDGE ( 'NONE', *, *, #132, .T. ) ;
#224 = ADVANCED_FACE ( 'NONE', ( #93 ), #20, .T. ) ;
#225 = AXIS2_PLACEMENT_3D ( 'NONE', #98, #304, #231 ) ;
#226 = CYLINDRICAL_SURFACE ( 'NONE', #190, 2.849999999999998312 ) ;
#227 = ORIENTED_EDGE ( 'NONE', *, *, #214, .F. ) ;
#228 = CALENDAR_DATE ( 2021, 3, 9 ) ;
#229 = ORIENTED_EDGE ( 'NONE', *, *, #167, .T. ) ;
#230 = PERSON_AND_ORGANIZATION_ROLE ( 'classification_officer' ) ;
#231 = DIRECTION ( 'NONE',  ( 1.000000000000000000, 0.0000000000000000000, 0.0000000000000000000 ) ) ;
#232 = AXIS2_PLACEMENT_3D ( 'NONE', #254, #26, #308 ) ;
#233 = COORDINATED_UNIVERSAL_TIME_OFFSET ( 1, 0, .AHEAD. ) ;
#234 = EDGE_CURVE ( 'NONE', #255, #164, #59, .T. ) ;
#235 = PRODUCT_DEFINITION_SHAPE ( 'NONE', 'NONE',  #166 ) ;
#236 = DIRECTION ( 'NONE',  ( 0.0000000000000000000, 1.000000000000000000, 0.0000000000000000000 ) ) ;
#237 = VERTEX_POINT ( 'NONE', #329 ) ;
#238 = EDGE_CURVE ( 'NONE', #164, #255, #239, .T. ) ;
#239 = CIRCLE ( 'NONE', #91, 2.849999999999995648 ) ;
#240 = CIRCLE ( 'NONE', #90, 2.250000000000001776 ) ;
#241 = CARTESIAN_POINT ( 'NONE',  ( 3.490243377569942749E-16, -2.849999999999998312, -3.490243377569966908E-16 ) ) ;
#242 = AXIS2_PLACEMENT_3D ( 'NONE', #271, #84, #319 ) ;
#243 = ORIENTED_EDGE ( 'NONE', *, *, #238, .T. ) ;
#244 = DIRECTION ( 'NONE',  ( -4.275831445896958607E-31, -1.000000000000000000, -1.224646799147353207E-16 ) ) ;
#245 = EDGE_CURVE ( 'NONE', #237, #260, #111, .T. ) ;
#246 = CARTESIAN_POINT ( 'NONE',  ( 0.0000000000000000000, 0.0000000000000000000, 0.0000000000000000000 ) ) ;
#247 = EDGE_LOOP ( 'NONE', ( #83, #178, #332 ) ) ;
#248 = VERTEX_POINT ( 'NONE', #112 ) ;
#249 = AXIS2_PLACEMENT_3D ( 'NONE', #156, #87, #4 ) ;
#250 = CC_DESIGN_PERSON_AND_ORGANIZATION_ASSIGNMENT ( #306, #230, ( #183 ) ) ;
#251 = EDGE_LOOP ( 'NONE', ( #143, #110, #39, #81 ) ) ;
#252 = DATE_AND_TIME ( #280, #14 ) ;
#253 = PERSON_AND_ORGANIZATION ( #336, #135 ) ;
#254 = CARTESIAN_POINT ( 'NONE',  ( 5.978996869954362127E-15, -2.097149796403544435E-16, 1.712452764228561186 ) ) ;
#255 = VERTEX_POINT ( 'NONE', #218 ) ;
#256 = ADVANCED_FACE ( 'NONE', ( #146 ), #52, .T. ) ;
#257 = FACE_OUTER_BOUND ( 'NONE', #302, .T. ) ;
#258 = CALENDAR_DATE ( 2021, 3, 9 ) ;
#259 = FACE_OUTER_BOUND ( 'NONE', #251, .T. ) ;
#260 = VERTEX_POINT ( 'NONE', #29 ) ;
#261 = LINE ( 'NONE', #317, #55 ) ;
#262 = VERTEX_POINT ( 'NONE', #187 ) ;
#263 = LINE ( 'NONE', #136, #192 ) ;
#264 = APPROVAL_PERSON_ORGANIZATION ( #48, #279, #205 ) ;
#265 = ORIENTED_EDGE ( 'NONE', *, *, #95, .F. ) ;
#266 = DIRECTION ( 'NONE',  ( -3.491481338843133355E-15, 1.224646799147353207E-16, -1.000000000000000000 ) ) ;
#267 = ORIENTED_EDGE ( 'NONE', *, *, #307, .F. ) ;
#268 = FACE_OUTER_BOUND ( 'NONE', #17, .T. ) ;
#269 = CONICAL_SURFACE ( 'NONE', #82, 2.250000000000001776, 0.7853981633974450594 ) ;
#270 = FACE_OUTER_BOUND ( 'NONE', #21, .T. ) ;
#271 = CARTESIAN_POINT ( 'NONE',  ( 0.0000000000000000000, 0.0000000000000000000, 0.0000000000000000000 ) ) ;
#272 = PERSON_AND_ORGANIZATION_ROLE ( 'design_owner' ) ;
#273 = APPROVAL_STATUS ( 'not_yet_approved' ) ;
#274 = MANIFOLD_SOLID_BREP ( 'Corps-Déplacer/Copier1[1]', #315 ) ;
#275 = DIRECTION ( 'NONE',  ( -3.491481338843133355E-15, 1.224646799147353207E-16, -1.000000000000000000 ) ) ;
#276 = ORIENTED_EDGE ( 'NONE', *, *, #234, .T. ) ;
#277 = LOCAL_TIME ( 9, 22, 37.00000000000000000, #233 ) ;
#278 = DATE_AND_TIME ( #228, #211 ) ;
#279 = APPROVAL ( #131, 'UNSPECIFIED' ) ;
#280 = CALENDAR_DATE ( 2021, 3, 9 ) ;
#281 = CARTESIAN_POINT ( 'NONE',  ( 7.332110811570580046E-14, -2.571758278209441661E-15, 21.00000000000000000 ) ) ;
#282 = DIRECTION ( 'NONE',  ( 0.0000000000000000000, 1.000000000000000000, 0.0000000000000000000 ) ) ;
#283 = APPROVAL_PERSON_ORGANIZATION ( #253, #49, #207 ) ;
#284 = DIRECTION ( 'NONE',  ( -3.491481338843133355E-15, 1.224646799147353207E-16, -1.000000000000000000 ) ) ;
#285 = LINE ( 'NONE', #61, #73 ) ;
#286 = CONICAL_SURFACE ( 'NONE', #198, 2.250000000000001776, 0.7853981633974450594 ) ;
#287 = LINE ( 'NONE', #320, #70 ) ;
#288 = VERTEX_POINT ( 'NONE', #337 ) ;
#289 = AXIS2_PLACEMENT_3D ( 'NONE', #53, #284, #62 ) ;
#290 = DIRECTION ( 'NONE',  ( -3.491481338843133355E-15, 1.224646799147353207E-16, -1.000000000000000000 ) ) ;
#291 = EDGE_CURVE ( 'NONE', #78, #262, #217, .T. ) ;
#292 = PLANE ( 'NONE',  #163 ) ;
#293 = EDGE_CURVE ( 'NONE', #288, #194, #285, .T. ) ;
#294 = AXIS2_PLACEMENT_3D ( 'NONE', #6, #56, #282 ) ;
#295 = CIRCLE ( 'NONE', #249, 2.850000000000000977 ) ;
#296 = CYLINDRICAL_SURFACE ( 'NONE', #242, 2.849999999999994316 ) ;
#297 = CLOSED_SHELL ( 'NONE', ( #325, #256, #224, #63, #313 ) ) ;
#298 = CYLINDRICAL_SURFACE ( 'NONE', #289, 2.849999999999994316 ) ;
#299 = DIRECTION ( 'NONE',  ( -3.491481338843133355E-15, 1.224646799147353207E-16, -1.000000000000000000 ) ) ;
#300 = AXIS2_PLACEMENT_3D ( 'NONE', #305, #108, #114 ) ;
#301 = CALENDAR_DATE ( 2021, 3, 9 ) ;
#302 = EDGE_LOOP ( 'NONE', ( #18, #120, #38, #182 ) ) ;
#303 = UNCERTAINTY_MEASURE_WITH_UNIT (LENGTH_MEASURE( 1.000000000000000082E-05 ), #10, 'distance_accuracy_value', 'NONE');
#304 = DIRECTION ( 'NONE',  ( 0.0000000000000000000, 0.0000000000000000000, 1.000000000000000000 ) ) ;
#305 = CARTESIAN_POINT ( 'NONE',  ( 7.332110811570580046E-14, 2.137157690293140249E-32, 21.00000000000000000 ) ) ;
#306 = PERSON_AND_ORGANIZATION ( #336, #135 ) ;
#307 = EDGE_CURVE ( 'NONE', #260, #122, #200, .T. ) ;
#308 = DIRECTION ( 'NONE',  ( 5.406119142139622933E-31, 1.000000000000000000, 1.521687259628781959E-16 ) ) ;
#309 = CARTESIAN_POINT ( 'NONE',  ( 7.332110811570580046E-14, 2.849999999999992983, 21.00000000000000000 ) ) ;
#310 = APPROVAL_ROLE ( '' ) ;
#311 = ORIENTED_EDGE ( 'NONE', *, *, #245, .F. ) ;
#312 = PERSON_AND_ORGANIZATION ( #336, #135 ) ;
#313 = ADVANCED_FACE ( 'NONE', ( #147 ), #25, .T. ) ;
#314 = DIRECTION ( 'NONE',  ( 0.0000000000000000000, 1.000000000000000000, 0.0000000000000000000 ) ) ;
#315 = CLOSED_SHELL ( 'NONE', ( #153, #321, #40, #5, #159, #92 ) ) ;
#316 = CC_DESIGN_APPROVAL ( #196, ( #183 ) ) ;
#317 = CARTESIAN_POINT ( 'NONE',  ( 6.328021207711357930E-15, 2.849999999999992983, 1.712452764228561630 ) ) ;
#318 = AXIS2_PLACEMENT_3D ( 'NONE', #65, #266, #37 ) ;
#319 = DIRECTION ( 'NONE',  ( 4.275831445896959482E-31, 1.000000000000000000, 1.224646799147353454E-16 ) ) ;
#320 = CARTESIAN_POINT ( 'NONE',  ( 2.307133138934549366E-13, -2.250000000000009770, 66.00000000000000000 ) ) ;
#321 = ADVANCED_FACE ( 'NONE', ( #204 ), #226, .T. ) ;
#322 = PRODUCT_DEFINITION_FORMATION_WITH_SPECIFIED_SOURCE ( 'ANY', '', #43, .NOT_KNOWN. ) ;
#323 = APPLICATION_CONTEXT ( 'configuration controlled 3d designs of mechanical parts and assemblies' ) ;
#324 = DIRECTION ( 'NONE',  ( -3.491481338843133355E-15, 1.224646799147353207E-16, -1.000000000000000000 ) ) ;
#325 = ADVANCED_FACE ( 'NONE', ( #88 ), #296, .T. ) ;
#326 = CC_DESIGN_SECURITY_CLASSIFICATION ( #183, ( #322 ) ) ;
#327 = DIRECTION ( 'NONE',  ( 3.491481338843133355E-15, -1.224646799147353207E-16, 1.000000000000000000 ) ) ;
#328 = CARTESIAN_POINT ( 'NONE',  ( 3.490243377569937819E-16, -2.849999999999994316, -3.490243377569961978E-16 ) ) ;
#329 = CARTESIAN_POINT ( 'NONE',  ( 2.297026088957764790E-13, -2.250000000000009770, 66.00000000000000000 ) ) ;
#330 = APPROVAL_STATUS ( 'not_yet_approved' ) ;
#331 = DATE_AND_TIME ( #258, #277 ) ;
#332 = ORIENTED_EDGE ( 'NONE', *, *, #100, .T. ) ;
#333 = DESIGN_CONTEXT ( 'detailed design', #323, 'design' ) ;
#334 = EDGE_CURVE ( 'NONE', #262, #78, #96, .T. ) ;
#335 = MECHANICAL_CONTEXT ( 'NONE', #216, 'mechanical' ) ;
#336 = PERSON ( 'UNSPECIFIED', 'UNSPECIFIED', 'UNSPECIFIED', ('UNSPECIFIED'), ('UNSPECIFIED'), ('UNSPECIFIED') ) ;
#337 = CARTESIAN_POINT ( 'NONE',  ( 0.0000000000000000000, 0.0000000000000000000, 0.0000000000000000000 ) ) ;
ENDSEC;
END-ISO-10303-21;
