ISO-10303-21;
HEADER;
FILE_DESCRIPTION (( 'STEP AP203' ),
    '1' );
FILE_NAME ('45719.step',
    '2021-10-07T13:48:12',
    ( '' ),
    ( '' ),
    'SwSTEP 2.0',
    'SolidWorks 2019',
    '' );
FILE_SCHEMA (( 'CONFIG_CONTROL_DESIGN' ));
ENDSEC;

DATA;
#1 = AXIS2_PLACEMENT_3D ( 'NONE', #7, #141, #61 ) ;
#2 = APPLICATION_CONTEXT ( 'configuration controlled 3d designs of mechanical parts and assemblies' ) ;
#3 = CC_DESIGN_PERSON_AND_ORGANIZATION_ASSIGNMENT ( #22, #54, ( #44 ) ) ;
#4 = EDGE_LOOP ( 'NONE', ( #58 ) ) ;
#5 = ADVANCED_FACE ( 'NONE', ( #166, #109 ), #153, .T. ) ;
#6 = EDGE_LOOP ( 'NONE', ( #208 ) ) ;
#7 = CARTESIAN_POINT ( 'NONE',  ( 4.204896164293149441E-14, -1.474879035170449168E-15, 12.04330127018922880 ) ) ;
#8 = PLANE ( 'NONE',  #48 ) ;
#9 = FACE_OUTER_BOUND ( 'NONE', #210, .T. ) ;
#10 = DIRECTION ( 'NONE',  ( -3.491481338843133355E-15, 1.224646799147353207E-16, -1.000000000000000000 ) ) ;
#11 = LOCAL_TIME ( 15, 48, 12.00000000000000000, #66 ) ;
#12 = PERSON_AND_ORGANIZATION_ROLE ( 'creator' ) ;
#13 = APPROVAL_STATUS ( 'not_yet_approved' ) ;
#14 = EDGE_CURVE ( 'NONE', #100, #100, #20, .T. ) ;
#15 = CLOSED_SHELL ( 'NONE', ( #77, #5, #71, #87, #93 ) ) ;
#16 = LOCAL_TIME ( 15, 48, 12.00000000000000000, #119 ) ;
#17 = ORGANIZATION ( 'UNSPECIFIED', 'UNSPECIFIED', '' ) ;
#18 = CARTESIAN_POINT ( 'NONE',  ( 2.045446297615958227E-15, 0.9749999999999936495, 0.5858391035518739631 ) ) ;
#19 = COORDINATED_UNIVERSAL_TIME_OFFSET ( 1, 0, .AHEAD. ) ;
#20 = CIRCLE ( 'NONE', #124, 0.9749999999999937605 ) ;
#21 = CC_DESIGN_PERSON_AND_ORGANIZATION_ASSIGNMENT ( #168, #12, ( #136 ) ) ;
#22 = PERSON_AND_ORGANIZATION ( #167, #17 ) ;
#23 = EDGE_LOOP ( 'NONE', ( #122 ) ) ;
#24 = CIRCLE ( 'NONE', #149, 0.9749999999999956479 ) ;
#25 = CC_DESIGN_PERSON_AND_ORGANIZATION_ASSIGNMENT ( #155, #83, ( #152 ) ) ;
#26 = FACE_OUTER_BOUND ( 'NONE', #104, .T. ) ;
#27 = DIRECTION ( 'NONE',  ( 3.491481338843133355E-15, -1.224646799147353207E-16, 1.000000000000000000 ) ) ;
#28 = CARTESIAN_POINT ( 'NONE',  ( 4.189777606611760026E-14, 7.311328940476499732E-33, 12.00000000000000000 ) ) ;
#29 = CARTESIAN_POINT ( 'NONE',  ( 1.326762908760390423E-13, 5.999039130647368167E-33, 38.00000000000000000 ) ) ;
#30 = DIRECTION ( 'NONE',  ( 0.0000000000000000000, 1.000000000000000000, 0.0000000000000000000 ) ) ;
#31 = CARTESIAN_POINT ( 'NONE',  ( 0.0000000000000000000, 0.0000000000000000000, 0.0000000000000000000 ) ) ;
#32 = DATE_AND_TIME ( #68, #16 ) ;
#33 = CARTESIAN_POINT ( 'NONE',  ( 4.189777606611760657E-14, 0.9749999999999940936, 12.00000000000000178 ) ) ;
#34 = LOCAL_TIME ( 15, 48, 12.00000000000000000, #19 ) ;
#35 = CARTESIAN_POINT ( 'NONE',  ( 1.326762908760390423E-13, 0.7999999999999963807, 38.00000000000000000 ) ) ;
#36 = PERSON_AND_ORGANIZATION_ROLE ( 'design_supplier' ) ;
#37 = ORIENTED_EDGE ( 'NONE', *, *, #222, .T. ) ;
#38 = EDGE_LOOP ( 'NONE', ( #72 ) ) ;
#39 = CIRCLE ( 'NONE', #105, 1.000000000000001110 ) ;
#40 = EDGE_LOOP ( 'NONE', ( #216 ) ) ;
#41 = CYLINDRICAL_SURFACE ( 'NONE', #142, 0.9999999999999993339 ) ;
#42 = PRODUCT_DEFINITION_SHAPE ( 'NONE', 'NONE',  #136 ) ;
#43 = AXIS2_PLACEMENT_3D ( 'NONE', #94, #163, #112 ) ;
#44 = SECURITY_CLASSIFICATION ( '', '', #193 ) ;
#45 = DIRECTION ( 'NONE',  ( 0.0000000000000000000, 1.000000000000000000, 0.0000000000000000000 ) ) ;
#46 = FACE_BOUND ( 'NONE', #4, .T. ) ;
#47 = CALENDAR_DATE ( 2021, 7, 10 ) ;
#48 = AXIS2_PLACEMENT_3D ( 'NONE', #29, #161, #144 ) ;
#49 = APPROVAL_ROLE ( '' ) ;
#50 = DATE_TIME_ROLE ( 'creation_date' ) ;
#51 = UNCERTAINTY_MEASURE_WITH_UNIT (LENGTH_MEASURE( 1.000000000000000082E-05 ), #184, 'distance_accuracy_value', 'NONE');
#52 = AXIS2_PLACEMENT_3D ( 'NONE', #217, #27, #165 ) ;
#53 = APPROVAL_STATUS ( 'not_yet_approved' ) ;
#54 = PERSON_AND_ORGANIZATION_ROLE ( 'classification_officer' ) ;
#55 = PERSON_AND_ORGANIZATION ( #167, #17 ) ;
#56 = CIRCLE ( 'NONE', #1, 0.9999999999999976685 ) ;
#57 = ORIENTED_EDGE ( 'NONE', *, *, #107, .F. ) ;
#58 = ORIENTED_EDGE ( 'NONE', *, *, #173, .T. ) ;
#59 = DIRECTION ( 'NONE',  ( 0.0000000000000000000, 1.000000000000000000, 0.0000000000000000000 ) ) ;
#60 = AXIS2_PLACEMENT_3D ( 'NONE', #212, #199, #59 ) ;
#61 = DIRECTION ( 'NONE',  ( 0.0000000000000000000, 1.000000000000000000, 0.0000000000000000000 ) ) ;
#62 = DIRECTION ( 'NONE',  ( 3.491481338843133355E-15, -1.224646799147353207E-16, 1.000000000000000000 ) ) ;
#63 = DIRECTION ( 'NONE',  ( 4.275831445896958607E-31, 1.000000000000000000, 1.224646799147353207E-16 ) ) ;
#64 = FACE_OUTER_BOUND ( 'NONE', #23, .T. ) ;
#65 = EDGE_CURVE ( 'NONE', #102, #102, #39, .T. ) ;
#66 = COORDINATED_UNIVERSAL_TIME_OFFSET ( 1, 0, .AHEAD. ) ;
#67 = CC_DESIGN_APPROVAL ( #121, ( #162 ) ) ;
#68 = CALENDAR_DATE ( 2021, 7, 10 ) ;
#69 = APPLICATION_PROTOCOL_DEFINITION ( 'international standard', 'config_control_design', 1994, #148 ) ;
#70 = DATE_TIME_ROLE ( 'classification_date' ) ;
#71 = ADVANCED_FACE ( 'NONE', ( #26, #179 ), #41, .T. ) ;
#72 = ORIENTED_EDGE ( 'NONE', *, *, #73, .T. ) ;
#73 = EDGE_CURVE ( 'NONE', #151, #151, #191, .T. ) ;
#74 = ORIENTED_EDGE ( 'NONE', *, *, #65, .F. ) ;
#75 = CARTESIAN_POINT ( 'NONE',  ( 0.0000000000000000000, 0.0000000000000000000, 0.0000000000000000000 ) ) ;
#76 = PLANE ( 'NONE',  #43 ) ;
#77 = ADVANCED_FACE ( 'NONE', ( #91 ), #200, .F. ) ;
#78 = DIRECTION ( 'NONE',  ( -3.491481338843133355E-15, 1.224646799147353207E-16, -1.000000000000000000 ) ) ;
#79 = CARTESIAN_POINT ( 'NONE',  ( 0.0000000000000000000, 0.0000000000000000000, 0.0000000000000000000 ) ) ;
#80 = DIRECTION ( 'NONE',  ( -3.491481338843133355E-15, 1.224646799147353207E-16, -1.000000000000000000 ) ) ;
#81 = AXIS2_PLACEMENT_3D ( 'NONE', #75, #78, #63 ) ;
#82 =( NAMED_UNIT ( * ) PLANE_ANGLE_UNIT ( ) SI_UNIT ( $, .RADIAN. ) );
#83 = PERSON_AND_ORGANIZATION_ROLE ( 'design_owner' ) ;
#84 = CC_DESIGN_PERSON_AND_ORGANIZATION_ASSIGNMENT ( #175, #36, ( #162 ) ) ;
#85 = DIRECTION ( 'NONE',  ( 0.0000000000000000000, 1.000000000000000000, 0.0000000000000000000 ) ) ;
#86 = VERTEX_POINT ( 'NONE', #221 ) ;
#87 = ADVANCED_FACE ( 'NONE', ( #111, #46 ), #178, .T. ) ;
#88 = CALENDAR_DATE ( 2021, 7, 10 ) ;
#89 = ADVANCED_BREP_SHAPE_REPRESENTATION ( '45719', ( #187, #194, #130 ), #209 ) ;
#90 = DIRECTION ( 'NONE',  ( -4.275831445896958607E-31, -1.000000000000000000, -1.224646799147353207E-16 ) ) ;
#91 = FACE_OUTER_BOUND ( 'NONE', #192, .T. ) ;
#92 = AXIS2_PLACEMENT_3D ( 'NONE', #28, #95, #90 ) ;
#93 = ADVANCED_FACE ( 'NONE', ( #64 ), #8, .F. ) ;
#94 = CARTESIAN_POINT ( 'NONE',  ( 4.189777606611760026E-14, 7.311328940476499732E-33, 12.00000000000000000 ) ) ;
#95 = DIRECTION ( 'NONE',  ( 3.491481338843133355E-15, -1.224646799147353207E-16, 1.000000000000000000 ) ) ;
#96 = APPROVAL_DATE_TIME ( #32, #99 ) ;
#97 = AXIS2_PLACEMENT_3D ( 'NONE', #218, #145, #30 ) ;
#98 = DIRECTION ( 'NONE',  ( -3.491481338843133355E-15, 1.224646799147353207E-16, -1.000000000000000000 ) ) ;
#99 = APPROVAL ( #53, 'UNSPECIFIED' ) ;
#100 = VERTEX_POINT ( 'NONE', #18 ) ;
#101 = LOCAL_TIME ( 15, 48, 12.00000000000000000, #120 ) ;
#102 = VERTEX_POINT ( 'NONE', #202 ) ;
#103 = APPROVAL_DATE_TIME ( #189, #147 ) ;
#104 = EDGE_LOOP ( 'NONE', ( #57 ) ) ;
#105 = AXIS2_PLACEMENT_3D ( 'NONE', #215, #197, #45 ) ;
#106 = CC_DESIGN_APPROVAL ( #99, ( #136 ) ) ;
#107 = EDGE_CURVE ( 'NONE', #86, #86, #56, .T. ) ;
#108 = FACE_OUTER_BOUND ( 'NONE', #40, .T. ) ;
#109 = FACE_OUTER_BOUND ( 'NONE', #123, .T. ) ;
#110 = CARTESIAN_POINT ( 'NONE',  ( 2.045446297615957832E-15, -7.174459829801571616E-17, 0.5858391035518738521 ) ) ;
#111 = FACE_OUTER_BOUND ( 'NONE', #139, .T. ) ;
#112 = DIRECTION ( 'NONE',  ( -4.275831445896958607E-31, -1.000000000000000000, -1.224646799147353207E-16 ) ) ;
#113 = APPROVAL_DATE_TIME ( #118, #121 ) ;
#114 = CONICAL_SURFACE ( 'NONE', #170, 0.9749999999999937605, 1.029744258676649649 ) ;
#115 = CC_DESIGN_APPROVAL ( #147, ( #44 ) ) ;
#116 = ADVANCED_FACE ( 'NONE', ( #125 ), #76, .T. ) ;
#117 = COORDINATED_UNIVERSAL_TIME_OFFSET ( 1, 0, .AHEAD. ) ;
#118 = DATE_AND_TIME ( #47, #214 ) ;
#119 = COORDINATED_UNIVERSAL_TIME_OFFSET ( 1, 0, .AHEAD. ) ;
#120 = COORDINATED_UNIVERSAL_TIME_OFFSET ( 1, 0, .AHEAD. ) ;
#121 = APPROVAL ( #13, 'UNSPECIFIED' ) ;
#122 = ORIENTED_EDGE ( 'NONE', *, *, #173, .F. ) ;
#123 = EDGE_LOOP ( 'NONE', ( #190 ) ) ;
#124 = AXIS2_PLACEMENT_3D ( 'NONE', #110, #10, #128 ) ;
#125 = FACE_OUTER_BOUND ( 'NONE', #6, .T. ) ;
#126 = DIRECTION ( 'NONE',  ( -3.950625526948201485E-31, -1.000000000000000000, -1.112002228190268101E-16 ) ) ;
#127 = CYLINDRICAL_SURFACE ( 'NONE', #81, 0.9749999999999947597 ) ;
#128 = DIRECTION ( 'NONE',  ( 3.950625526948201485E-31, 1.000000000000000000, 1.112002228190268101E-16 ) ) ;
#129 = CALENDAR_DATE ( 2021, 7, 10 ) ;
#130 = AXIS2_PLACEMENT_3D ( 'NONE', #31, #219, #223 ) ;
#131 = PERSON_AND_ORGANIZATION ( #167, #17 ) ;
#132 = CARTESIAN_POINT ( 'NONE',  ( 4.189777606611760657E-14, 0.9749999999999940936, 12.00000000000000178 ) ) ;
#133 = MECHANICAL_CONTEXT ( 'NONE', #2, 'mechanical' ) ;
#134 = CC_DESIGN_SECURITY_CLASSIFICATION ( #44, ( #162 ) ) ;
#135 = CALENDAR_DATE ( 2021, 7, 10 ) ;
#136 = PRODUCT_DEFINITION ( 'UNKNOWN', '', #162, #204 ) ;
#137 = ORIENTED_EDGE ( 'NONE', *, *, #14, .F. ) ;
#138 = APPROVAL_PERSON_ORGANIZATION ( #206, #99, #203 ) ;
#139 = EDGE_LOOP ( 'NONE', ( #74 ) ) ;
#140 = EDGE_LOOP ( 'NONE', ( #174 ) ) ;
#141 = DIRECTION ( 'NONE',  ( -3.491481338843133355E-15, 1.224646799147353207E-16, -1.000000000000000000 ) ) ;
#142 = AXIS2_PLACEMENT_3D ( 'NONE', #79, #80, #177 ) ;
#143 = APPROVAL_PERSON_ORGANIZATION ( #55, #147, #188 ) ;
#144 = DIRECTION ( 'NONE',  ( 4.275831445896958607E-31, 1.000000000000000000, 1.224646799147353207E-16 ) ) ;
#145 = DIRECTION ( 'NONE',  ( -3.491481338843133355E-15, 1.224646799147353207E-16, -1.000000000000000000 ) ) ;
#146 = CARTESIAN_POINT ( 'NONE',  ( 1.326762908760390423E-13, -4.653657836759941941E-15, 38.00000000000000000 ) ) ;
#147 = APPROVAL ( #156, 'UNSPECIFIED' ) ;
#148 = APPLICATION_CONTEXT ( 'configuration controlled 3d designs of mechanical parts and assemblies' ) ;
#149 = AXIS2_PLACEMENT_3D ( 'NONE', #196, #98, #85 ) ;
#150 = DIRECTION ( 'NONE',  ( -3.491481338843133355E-15, 1.224646799147353207E-16, -1.000000000000000000 ) ) ;
#151 = VERTEX_POINT ( 'NONE', #33 ) ;
#152 = PRODUCT ( '45719', '45719', '', ( #133 ) ) ;
#153 = CONICAL_SURFACE ( 'NONE', #52, 0.9999999999999976685, 0.5235987755982935976 ) ;
#154 = VERTEX_POINT ( 'NONE', #132 ) ;
#155 = PERSON_AND_ORGANIZATION ( #167, #17 ) ;
#156 = APPROVAL_STATUS ( 'not_yet_approved' ) ;
#157 = CIRCLE ( 'NONE', #60, 0.8000000000000010436 ) ;
#158 = DATE_AND_TIME ( #88, #101 ) ;
#159 = SHAPE_DEFINITION_REPRESENTATION ( #42, #89 ) ;
#160 = FACE_OUTER_BOUND ( 'NONE', #38, .T. ) ;
#161 = DIRECTION ( 'NONE',  ( -3.491481338843133355E-15, 1.224646799147353207E-16, -1.000000000000000000 ) ) ;
#162 = PRODUCT_DEFINITION_FORMATION_WITH_SPECIFIED_SOURCE ( 'ANY', '', #152, .NOT_KNOWN. ) ;
#163 = DIRECTION ( 'NONE',  ( 3.491481338843133355E-15, -1.224646799147353207E-16, 1.000000000000000000 ) ) ;
#164 = CC_DESIGN_DATE_AND_TIME_ASSIGNMENT ( #201, #50, ( #136 ) ) ;
#165 = DIRECTION ( 'NONE',  ( 0.0000000000000000000, -1.000000000000000000, 0.0000000000000000000 ) ) ;
#166 = FACE_BOUND ( 'NONE', #182, .T. ) ;
#167 = PERSON ( 'UNSPECIFIED', 'UNSPECIFIED', 'UNSPECIFIED', ('UNSPECIFIED'), ('UNSPECIFIED'), ('UNSPECIFIED') ) ;
#168 = PERSON_AND_ORGANIZATION ( #167, #17 ) ;
#169 = PERSON_AND_ORGANIZATION_ROLE ( 'creator' ) ;
#170 = AXIS2_PLACEMENT_3D ( 'NONE', #176, #62, #126 ) ;
#171 = APPLICATION_PROTOCOL_DEFINITION ( 'international standard', 'config_control_design', 1994, #2 ) ;
#172 = ADVANCED_FACE ( 'NONE', ( #9, #160 ), #127, .T. ) ;
#173 = EDGE_CURVE ( 'NONE', #186, #186, #157, .T. ) ;
#174 = ORIENTED_EDGE ( 'NONE', *, *, #65, .T. ) ;
#175 = PERSON_AND_ORGANIZATION ( #167, #17 ) ;
#176 = CARTESIAN_POINT ( 'NONE',  ( 2.045446297615957832E-15, -7.174459829801571616E-17, 0.5858391035518738521 ) ) ;
#177 = DIRECTION ( 'NONE',  ( 4.275831445896957731E-31, 1.000000000000000000, 1.224646799147353207E-16 ) ) ;
#178 = CONICAL_SURFACE ( 'NONE', #213, 0.8000000000000010436, 0.7853981633974516097 ) ;
#179 = FACE_OUTER_BOUND ( 'NONE', #140, .T. ) ;
#180 = PRODUCT_RELATED_PRODUCT_CATEGORY ( 'detail', '', ( #152 ) ) ;
#181 = DIRECTION ( 'NONE',  ( 0.0000000000000000000, 1.000000000000000000, 0.0000000000000000000 ) ) ;
#182 = EDGE_LOOP ( 'NONE', ( #211 ) ) ;
#183 = PERSON_AND_ORGANIZATION ( #167, #17 ) ;
#184 =( LENGTH_UNIT ( ) NAMED_UNIT ( * ) SI_UNIT ( .MILLI., .METRE. ) );
#185 = CC_DESIGN_DATE_AND_TIME_ASSIGNMENT ( #158, #70, ( #44 ) ) ;
#186 = VERTEX_POINT ( 'NONE', #35 ) ;
#187 = MANIFOLD_SOLID_BREP ( 'Corps-Déplacer/Copier1[1]', #15 ) ;
#188 = APPROVAL_ROLE ( '' ) ;
#189 = DATE_AND_TIME ( #135, #34 ) ;
#190 = ORIENTED_EDGE ( 'NONE', *, *, #107, .T. ) ;
#191 = CIRCLE ( 'NONE', #97, 0.9749999999999956479 ) ;
#192 = EDGE_LOOP ( 'NONE', ( #37 ) ) ;
#193 = SECURITY_CLASSIFICATION_LEVEL ( 'unclassified' ) ;
#194 = MANIFOLD_SOLID_BREP ( 'Corps-Déplacer/Copier1[2]', #195 ) ;
#195 = CLOSED_SHELL ( 'NONE', ( #220, #172, #116 ) ) ;
#196 = CARTESIAN_POINT ( 'NONE',  ( 4.189777606611760657E-14, -1.469576158976824144E-15, 12.00000000000000178 ) ) ;
#197 = DIRECTION ( 'NONE',  ( -3.491481338843133355E-15, 1.224646799147353207E-16, -1.000000000000000000 ) ) ;
#198 = APPROVAL_PERSON_ORGANIZATION ( #131, #121, #49 ) ;
#199 = DIRECTION ( 'NONE',  ( -3.491481338843133355E-15, 1.224646799147353207E-16, -1.000000000000000000 ) ) ;
#200 = PLANE ( 'NONE',  #92 ) ;
#201 = DATE_AND_TIME ( #129, #11 ) ;
#202 = CARTESIAN_POINT ( 'NONE',  ( 1.319779946082704535E-13, 0.9999999999999965583, 37.79999999999999716 ) ) ;
#203 = APPROVAL_ROLE ( '' ) ;
#204 = DESIGN_CONTEXT ( 'detailed design', #148, 'design' ) ;
#205 =( NAMED_UNIT ( * ) SI_UNIT ( $, .STERADIAN. ) SOLID_ANGLE_UNIT ( ) );
#206 = PERSON_AND_ORGANIZATION ( #167, #17 ) ;
#207 = CC_DESIGN_PERSON_AND_ORGANIZATION_ASSIGNMENT ( #183, #169, ( #162 ) ) ;
#208 = ORIENTED_EDGE ( 'NONE', *, *, #73, .F. ) ;
#209 =( GEOMETRIC_REPRESENTATION_CONTEXT ( 3 ) GLOBAL_UNCERTAINTY_ASSIGNED_CONTEXT ( ( #51 ) ) GLOBAL_UNIT_ASSIGNED_CONTEXT ( ( #184, #82, #205 ) ) REPRESENTATION_CONTEXT ( 'NONE', 'WORKASPACE' ) );
#210 = EDGE_LOOP ( 'NONE', ( #137 ) ) ;
#211 = ORIENTED_EDGE ( 'NONE', *, *, #222, .F. ) ;
#212 = CARTESIAN_POINT ( 'NONE',  ( 1.326762908760390423E-13, -4.653657836759941941E-15, 38.00000000000000000 ) ) ;
#213 = AXIS2_PLACEMENT_3D ( 'NONE', #146, #150, #181 ) ;
#214 = LOCAL_TIME ( 15, 48, 12.00000000000000000, #117 ) ;
#215 = CARTESIAN_POINT ( 'NONE',  ( 1.319779946082704535E-13, -4.629164900776995227E-15, 37.79999999999999716 ) ) ;
#216 = ORIENTED_EDGE ( 'NONE', *, *, #14, .T. ) ;
#217 = CARTESIAN_POINT ( 'NONE',  ( 4.204896164293149441E-14, -1.474879035170449168E-15, 12.04330127018922880 ) ) ;
#218 = CARTESIAN_POINT ( 'NONE',  ( 4.189777606611760657E-14, -1.469576158976824144E-15, 12.00000000000000178 ) ) ;
#219 = DIRECTION ( 'NONE',  ( 0.0000000000000000000, 0.0000000000000000000, 1.000000000000000000 ) ) ;
#220 = ADVANCED_FACE ( 'NONE', ( #108 ), #114, .T. ) ;
#221 = CARTESIAN_POINT ( 'NONE',  ( 4.204896164293149441E-14, 0.9999999999999961142, 12.04330127018922880 ) ) ;
#222 = EDGE_CURVE ( 'NONE', #154, #154, #24, .T. ) ;
#223 = DIRECTION ( 'NONE',  ( 1.000000000000000000, 0.0000000000000000000, 0.0000000000000000000 ) ) ;
ENDSEC;
END-ISO-10303-21;
