ISO-10303-21;
HEADER;
FILE_DESCRIPTION (( 'STEP AP203' ),
    '1' );
FILE_NAME ('45718.step',
    '2021-10-07T13:48:11',
    ( '' ),
    ( '' ),
    'SwSTEP 2.0',
    'SolidWorks 2019',
    '' );
FILE_SCHEMA (( 'CONFIG_CONTROL_DESIGN' ));
ENDSEC;

DATA;
#1 = PERSON_AND_ORGANIZATION ( #187, #110 ) ;
#2 = FACE_BOUND ( 'NONE', #104, .T. ) ;
#3 = DIRECTION ( 'NONE',  ( 0.0000000000000000000, 1.000000000000000000, 0.0000000000000000000 ) ) ;
#4 = ORIENTED_EDGE ( 'NONE', *, *, #72, .F. ) ;
#5 = ADVANCED_FACE ( 'NONE', ( #55, #2 ), #194, .T. ) ;
#6 = CIRCLE ( 'NONE', #57, 0.7499999999999977796 ) ;
#7 = FACE_OUTER_BOUND ( 'NONE', #197, .T. ) ;
#8 = DIRECTION ( 'NONE',  ( 4.275831445896958607E-31, 1.000000000000000000, 1.224646799147353454E-16 ) ) ;
#9 = EDGE_CURVE ( 'NONE', #85, #85, #80, .T. ) ;
#10 = CC_DESIGN_PERSON_AND_ORGANIZATION_ASSIGNMENT ( #84, #166, ( #118 ) ) ;
#11 = CC_DESIGN_APPROVAL ( #198, ( #170 ) ) ;
#12 = ADVANCED_FACE ( 'NONE', ( #151 ), #93, .T. ) ;
#13 = DATE_TIME_ROLE ( 'classification_date' ) ;
#14 = CLOSED_SHELL ( 'NONE', ( #139, #158, #74, #5, #119 ) ) ;
#15 = LOCAL_TIME ( 15, 48, 11.00000000000000000, #32 ) ;
#16 = MECHANICAL_CONTEXT ( 'NONE', #103, 'mechanical' ) ;
#17 = COORDINATED_UNIVERSAL_TIME_OFFSET ( 1, 0, .AHEAD. ) ;
#18 = CARTESIAN_POINT ( 'NONE',  ( 3.910459099504309989E-14, -2.074181599541595461E-31, 11.20000000000000107 ) ) ;
#19 = PERSON_AND_ORGANIZATION_ROLE ( 'design_owner' ) ;
#20 = DIRECTION ( 'NONE',  ( 0.0000000000000000000, 1.000000000000000000, 0.0000000000000000000 ) ) ;
#21 = PLANE ( 'NONE',  #203 ) ;
#22 = CC_DESIGN_PERSON_AND_ORGANIZATION_ASSIGNMENT ( #49, #19, ( #26 ) ) ;
#23 = CARTESIAN_POINT ( 'NONE',  ( 1.405588737848910673E-15, -4.930141626632861223E-17, 0.4025766147484660662 ) ) ;
#24 = DIRECTION ( 'NONE',  ( -3.491481338843133355E-15, 1.224646799147353207E-16, -1.000000000000000000 ) ) ;
#25 = ADVANCED_FACE ( 'NONE', ( #108, #215 ), #68, .T. ) ;
#26 = PRODUCT ( '45718', '45718', '', ( #16 ) ) ;
#27 =( GEOMETRIC_REPRESENTATION_CONTEXT ( 3 ) GLOBAL_UNCERTAINTY_ASSIGNED_CONTEXT ( ( #63 ) ) GLOBAL_UNIT_ASSIGNED_CONTEXT ( ( #76, #116, #114 ) ) REPRESENTATION_CONTEXT ( 'NONE', 'WORKASPACE' ) );
#28 = DIRECTION ( 'NONE',  ( 0.0000000000000000000, 1.000000000000000000, 0.0000000000000000000 ) ) ;
#29 = ORIENTED_EDGE ( 'NONE', *, *, #86, .T. ) ;
#30 = AXIS2_PLACEMENT_3D ( 'NONE', #192, #196, #69 ) ;
#31 = SHAPE_DEFINITION_REPRESENTATION ( #126, #64 ) ;
#32 = COORDINATED_UNIVERSAL_TIME_OFFSET ( 1, 0, .AHEAD. ) ;
#33 = EDGE_LOOP ( 'NONE', ( #155 ) ) ;
#34 = DATE_AND_TIME ( #121, #145 ) ;
#35 = DIRECTION ( 'NONE',  ( -3.491481338843133355E-15, 1.224646799147353207E-16, -1.000000000000000000 ) ) ;
#36 = ORIENTED_EDGE ( 'NONE', *, *, #220, .T. ) ;
#37 = EDGE_LOOP ( 'NONE', ( #4 ) ) ;
#38 = CLOSED_SHELL ( 'NONE', ( #12, #25, #97 ) ) ;
#39 = AXIS2_PLACEMENT_3D ( 'NONE', #92, #66, #100 ) ;
#40 = DIRECTION ( 'NONE',  ( 0.0000000000000000000, -1.000000000000000000, 0.0000000000000000000 ) ) ;
#41 = DIRECTION ( 'NONE',  ( -3.491481338843133355E-15, 1.224646799147353207E-16, -1.000000000000000000 ) ) ;
#42 = CIRCLE ( 'NONE', #30, 0.6699999999999949329 ) ;
#43 = DESIGN_CONTEXT ( 'detailed design', #156, 'design' ) ;
#44 = CC_DESIGN_PERSON_AND_ORGANIZATION_ASSIGNMENT ( #189, #65, ( #170 ) ) ;
#45 = ORIENTED_EDGE ( 'NONE', *, *, #9, .F. ) ;
#46 = CARTESIAN_POINT ( 'NONE',  ( 1.047444401652940007E-13, 0.5499999999999953815, 30.00000000000000000 ) ) ;
#47 = DATE_AND_TIME ( #77, #154 ) ;
#48 = COORDINATED_UNIVERSAL_TIME_OFFSET ( 1, 0, .AHEAD. ) ;
#49 = PERSON_AND_ORGANIZATION ( #187, #110 ) ;
#50 = APPROVAL_ROLE ( '' ) ;
#51 = APPROVAL_STATUS ( 'not_yet_approved' ) ;
#52 = DIRECTION ( 'NONE',  ( -3.491481338843133355E-15, 1.224646799147353207E-16, -1.000000000000000000 ) ) ;
#53 = CYLINDRICAL_SURFACE ( 'NONE', #221, 0.7499999999999984457 ) ;
#54 = APPROVAL_PERSON_ORGANIZATION ( #61, #111, #134 ) ;
#55 = FACE_OUTER_BOUND ( 'NONE', #89, .T. ) ;
#56 = ORIENTED_EDGE ( 'NONE', *, *, #86, .F. ) ;
#57 = AXIS2_PLACEMENT_3D ( 'NONE', #132, #41, #28 ) ;
#58 = AXIS2_PLACEMENT_3D ( 'NONE', #218, #95, #59 ) ;
#59 = DIRECTION ( 'NONE',  ( 2.874522305055602220E-31, 1.000000000000000000, 1.618212197739573674E-16 ) ) ;
#60 = APPROVAL_STATUS ( 'not_yet_approved' ) ;
#61 = PERSON_AND_ORGANIZATION ( #187, #110 ) ;
#62 = EDGE_LOOP ( 'NONE', ( #56 ) ) ;
#63 = UNCERTAINTY_MEASURE_WITH_UNIT (LENGTH_MEASURE( 1.000000000000000082E-05 ), #76, 'distance_accuracy_value', 'NONE');
#64 = ADVANCED_BREP_SHAPE_REPRESENTATION ( '45718', ( #184, #181, #214 ), #27 ) ;
#65 = PERSON_AND_ORGANIZATION_ROLE ( 'design_supplier' ) ;
#66 = DIRECTION ( 'NONE',  ( -3.491481338843133355E-15, 1.224646799147353207E-16, -1.000000000000000000 ) ) ;
#67 = PRODUCT_RELATED_PRODUCT_CATEGORY ( 'detail', '', ( #26 ) ) ;
#68 = CYLINDRICAL_SURFACE ( 'NONE', #96, 0.6699999999999943778 ) ;
#69 = DIRECTION ( 'NONE',  ( 0.0000000000000000000, 1.000000000000000000, 0.0000000000000000000 ) ) ;
#70 = AXIS2_PLACEMENT_3D ( 'NONE', #73, #143, #193 ) ;
#71 = EDGE_LOOP ( 'NONE', ( #213 ) ) ;
#72 = EDGE_CURVE ( 'NONE', #133, #133, #42, .T. ) ;
#73 = CARTESIAN_POINT ( 'NONE',  ( 1.047444401652940007E-13, -3.673940397442059178E-15, 30.00000000000000000 ) ) ;
#74 = ADVANCED_FACE ( 'NONE', ( #91, #138 ), #53, .T. ) ;
#75 = CARTESIAN_POINT ( 'NONE',  ( 1.040461438975253866E-13, 0.7499999999999954481, 29.80000000000000426 ) ) ;
#76 =( LENGTH_UNIT ( ) NAMED_UNIT ( * ) SI_UNIT ( .MILLI., .METRE. ) );
#77 = CALENDAR_DATE ( 2021, 7, 10 ) ;
#78 = ORIENTED_EDGE ( 'NONE', *, *, #220, .F. ) ;
#79 = PERSON_AND_ORGANIZATION_ROLE ( 'creator' ) ;
#80 = CIRCLE ( 'NONE', #159, 0.6699999999999949329 ) ;
#81 = APPROVAL ( #219, 'UNSPECIFIED' ) ;
#82 = CIRCLE ( 'NONE', #39, 0.7499999999999991118 ) ;
#83 = PERSON_AND_ORGANIZATION ( #187, #110 ) ;
#84 = PERSON_AND_ORGANIZATION ( #187, #110 ) ;
#85 = VERTEX_POINT ( 'NONE', #210 ) ;
#86 = EDGE_CURVE ( 'NONE', #202, #202, #162, .T. ) ;
#87 = DIRECTION ( 'NONE',  ( -3.491481338843133355E-15, 1.224646799147353207E-16, -1.000000000000000000 ) ) ;
#88 = SECURITY_CLASSIFICATION_LEVEL ( 'unclassified' ) ;
#89 = EDGE_LOOP ( 'NONE', ( #78 ) ) ;
#90 = CARTESIAN_POINT ( 'NONE',  ( 1.047444401652940007E-13, 4.124339402320045473E-33, 30.00000000000000000 ) ) ;
#91 = FACE_OUTER_BOUND ( 'NONE', #183, .T. ) ;
#92 = CARTESIAN_POINT ( 'NONE',  ( 1.040461438975253866E-13, -3.649447461459112464E-15, 29.80000000000000426 ) ) ;
#93 = CONICAL_SURFACE ( 'NONE', #141, 0.6699999999999938227, 1.029744258676649649 ) ;
#94 = CIRCLE ( 'NONE', #58, 0.6699999999999938227 ) ;
#95 = DIRECTION ( 'NONE',  ( -3.491481338843133355E-15, 1.224646799147353207E-16, -1.000000000000000000 ) ) ;
#96 = AXIS2_PLACEMENT_3D ( 'NONE', #107, #87, #129 ) ;
#97 = ADVANCED_FACE ( 'NONE', ( #7 ), #171, .T. ) ;
#98 = PERSON_AND_ORGANIZATION_ROLE ( 'creator' ) ;
#99 = CALENDAR_DATE ( 2021, 7, 10 ) ;
#100 = DIRECTION ( 'NONE',  ( 0.0000000000000000000, 1.000000000000000000, 0.0000000000000000000 ) ) ;
#101 = PLANE ( 'NONE',  #157 ) ;
#102 = APPROVAL_DATE_TIME ( #34, #198 ) ;
#103 = APPLICATION_CONTEXT ( 'configuration controlled 3d designs of mechanical parts and assemblies' ) ;
#104 = EDGE_LOOP ( 'NONE', ( #29 ) ) ;
#105 = CC_DESIGN_APPROVAL ( #81, ( #128 ) ) ;
#106 = DIRECTION ( 'NONE',  ( 3.491481338843133355E-15, -1.224646799147353207E-16, 1.000000000000000000 ) ) ;
#107 = CARTESIAN_POINT ( 'NONE',  ( 0.0000000000000000000, 0.0000000000000000000, 0.0000000000000000000 ) ) ;
#108 = FACE_OUTER_BOUND ( 'NONE', #212, .T. ) ;
#109 = CC_DESIGN_DATE_AND_TIME_ASSIGNMENT ( #149, #13, ( #118 ) ) ;
#110 = ORGANIZATION ( 'UNSPECIFIED', 'UNSPECIFIED', '' ) ;
#111 = APPROVAL ( #60, 'UNSPECIFIED' ) ;
#112 = VERTEX_POINT ( 'NONE', #175 ) ;
#113 = APPROVAL_PERSON_ORGANIZATION ( #83, #198, #50 ) ;
#114 =( NAMED_UNIT ( * ) SI_UNIT ( $, .STERADIAN. ) SOLID_ANGLE_UNIT ( ) );
#115 = ORIENTED_EDGE ( 'NONE', *, *, #209, .T. ) ;
#116 =( NAMED_UNIT ( * ) PLANE_ANGLE_UNIT ( ) SI_UNIT ( $, .RADIAN. ) );
#117 = APPLICATION_PROTOCOL_DEFINITION ( 'international standard', 'config_control_design', 1994, #156 ) ;
#118 = SECURITY_CLASSIFICATION ( '', '', #88 ) ;
#119 = ADVANCED_FACE ( 'NONE', ( #172 ), #21, .F. ) ;
#120 = APPROVAL_DATE_TIME ( #146, #81 ) ;
#121 = CALENDAR_DATE ( 2021, 7, 10 ) ;
#122 = DIRECTION ( 'NONE',  ( -4.275831445896958607E-31, -1.000000000000000000, -1.224646799147353207E-16 ) ) ;
#123 = CALENDAR_DATE ( 2021, 7, 10 ) ;
#124 = FACE_OUTER_BOUND ( 'NONE', #71, .T. ) ;
#125 = EDGE_LOOP ( 'NONE', ( #204 ) ) ;
#126 = PRODUCT_DEFINITION_SHAPE ( 'NONE', 'NONE',  #128 ) ;
#127 = AXIS2_PLACEMENT_3D ( 'NONE', #199, #131, #40 ) ;
#128 = PRODUCT_DEFINITION ( 'UNKNOWN', '', #170, #43 ) ;
#129 = DIRECTION ( 'NONE',  ( 4.275831445896958607E-31, 1.000000000000000000, 1.224646799147353207E-16 ) ) ;
#130 = EDGE_LOOP ( 'NONE', ( #36 ) ) ;
#131 = DIRECTION ( 'NONE',  ( 3.491481338843133355E-15, -1.224646799147353207E-16, 1.000000000000000000 ) ) ;
#132 = CARTESIAN_POINT ( 'NONE',  ( 3.958838484084750689E-14, -1.388573618864634643E-15, 11.33856406460551547 ) ) ;
#133 = VERTEX_POINT ( 'NONE', #201 ) ;
#134 = APPROVAL_ROLE ( '' ) ;
#135 = COORDINATED_UNIVERSAL_TIME_OFFSET ( 1, 0, .AHEAD. ) ;
#136 = DIRECTION ( 'NONE',  ( 0.0000000000000000000, 0.0000000000000000000, 1.000000000000000000 ) ) ;
#137 = DIRECTION ( 'NONE',  ( 4.275831445896958607E-31, 1.000000000000000000, 1.224646799147353207E-16 ) ) ;
#138 = FACE_OUTER_BOUND ( 'NONE', #130, .T. ) ;
#139 = ADVANCED_FACE ( 'NONE', ( #124 ), #101, .F. ) ;
#140 = CARTESIAN_POINT ( 'NONE',  ( 3.910459099504309989E-14, -2.074181599541595461E-31, 11.20000000000000107 ) ) ;
#141 = AXIS2_PLACEMENT_3D ( 'NONE', #23, #106, #142 ) ;
#142 = DIRECTION ( 'NONE',  ( -2.874522305055602220E-31, -1.000000000000000000, -1.618212197739573674E-16 ) ) ;
#143 = DIRECTION ( 'NONE',  ( -3.491481338843133355E-15, 1.224646799147353207E-16, -1.000000000000000000 ) ) ;
#144 = CC_DESIGN_APPROVAL ( #111, ( #118 ) ) ;
#145 = LOCAL_TIME ( 15, 48, 11.00000000000000000, #48 ) ;
#146 = DATE_AND_TIME ( #123, #222 ) ;
#147 = PERSON_AND_ORGANIZATION ( #187, #110 ) ;
#148 = DIRECTION ( 'NONE',  ( 3.491481338843133355E-15, -1.224646799147353207E-16, 1.000000000000000000 ) ) ;
#149 = DATE_AND_TIME ( #99, #15 ) ;
#150 = APPROVAL_PERSON_ORGANIZATION ( #1, #81, #207 ) ;
#151 = FACE_OUTER_BOUND ( 'NONE', #180, .T. ) ;
#152 = ORIENTED_EDGE ( 'NONE', *, *, #167, .F. ) ;
#153 = DIRECTION ( 'NONE',  ( -3.491481338843133355E-15, 1.224646799147353207E-16, -1.000000000000000000 ) ) ;
#154 = LOCAL_TIME ( 15, 48, 11.00000000000000000, #206 ) ;
#155 = ORIENTED_EDGE ( 'NONE', *, *, #9, .T. ) ;
#156 = APPLICATION_CONTEXT ( 'configuration controlled 3d designs of mechanical parts and assemblies' ) ;
#157 = AXIS2_PLACEMENT_3D ( 'NONE', #18, #148, #211 ) ;
#158 = ADVANCED_FACE ( 'NONE', ( #177, #179 ), #195, .T. ) ;
#159 = AXIS2_PLACEMENT_3D ( 'NONE', #165, #35, #20 ) ;
#160 = VERTEX_POINT ( 'NONE', #178 ) ;
#161 = CARTESIAN_POINT ( 'NONE',  ( 0.0000000000000000000, 0.0000000000000000000, 0.0000000000000000000 ) ) ;
#162 = CIRCLE ( 'NONE', #70, 0.5499999999999990452 ) ;
#163 = DIRECTION ( 'NONE',  ( 1.000000000000000000, 0.0000000000000000000, 0.0000000000000000000 ) ) ;
#164 = DATE_TIME_ROLE ( 'creation_date' ) ;
#165 = CARTESIAN_POINT ( 'NONE',  ( 3.910459099504309989E-14, -1.371604415045035710E-15, 11.20000000000000107 ) ) ;
#166 = PERSON_AND_ORGANIZATION_ROLE ( 'classification_officer' ) ;
#167 = EDGE_CURVE ( 'NONE', #112, #112, #6, .T. ) ;
#168 = CARTESIAN_POINT ( 'NONE',  ( 1.047444401652940007E-13, -3.673940397442059178E-15, 30.00000000000000000 ) ) ;
#169 = AXIS2_PLACEMENT_3D ( 'NONE', #140, #216, #122 ) ;
#170 = PRODUCT_DEFINITION_FORMATION_WITH_SPECIFIED_SOURCE ( 'ANY', '', #26, .NOT_KNOWN. ) ;
#171 = PLANE ( 'NONE',  #169 ) ;
#172 = FACE_OUTER_BOUND ( 'NONE', #62, .T. ) ;
#173 = CARTESIAN_POINT ( 'NONE',  ( 0.0000000000000000000, 0.0000000000000000000, 0.0000000000000000000 ) ) ;
#174 = CC_DESIGN_PERSON_AND_ORGANIZATION_ASSIGNMENT ( #147, #79, ( #170 ) ) ;
#175 = CARTESIAN_POINT ( 'NONE',  ( 3.958838484084750689E-14, 0.7499999999999963363, 11.33856406460551547 ) ) ;
#176 = AXIS2_PLACEMENT_3D ( 'NONE', #168, #153, #3 ) ;
#177 = FACE_BOUND ( 'NONE', #37, .T. ) ;
#178 = CARTESIAN_POINT ( 'NONE',  ( 1.405588737848910870E-15, 0.6699999999999938227, 0.4025766147484661772 ) ) ;
#179 = FACE_OUTER_BOUND ( 'NONE', #125, .T. ) ;
#180 = EDGE_LOOP ( 'NONE', ( #115 ) ) ;
#181 = MANIFOLD_SOLID_BREP ( 'Corps-Déplacer/Copier1[2]', #38 ) ;
#182 = APPROVAL_DATE_TIME ( #47, #111 ) ;
#183 = EDGE_LOOP ( 'NONE', ( #152 ) ) ;
#184 = MANIFOLD_SOLID_BREP ( 'Corps-Déplacer/Copier1[1]', #14 ) ;
#185 = CC_DESIGN_PERSON_AND_ORGANIZATION_ASSIGNMENT ( #223, #98, ( #128 ) ) ;
#186 = DATE_AND_TIME ( #208, #217 ) ;
#187 = PERSON ( 'UNSPECIFIED', 'UNSPECIFIED', 'UNSPECIFIED', ('UNSPECIFIED'), ('UNSPECIFIED'), ('UNSPECIFIED') ) ;
#188 = CC_DESIGN_SECURITY_CLASSIFICATION ( #118, ( #170 ) ) ;
#189 = PERSON_AND_ORGANIZATION ( #187, #110 ) ;
#190 = CC_DESIGN_DATE_AND_TIME_ASSIGNMENT ( #186, #164, ( #128 ) ) ;
#191 = ORIENTED_EDGE ( 'NONE', *, *, #209, .F. ) ;
#192 = CARTESIAN_POINT ( 'NONE',  ( 3.910459099504309989E-14, -1.371604415045035710E-15, 11.20000000000000107 ) ) ;
#193 = DIRECTION ( 'NONE',  ( 0.0000000000000000000, 1.000000000000000000, 0.0000000000000000000 ) ) ;
#194 = CONICAL_SURFACE ( 'NONE', #176, 0.5499999999999990452, 0.7853981633974602694 ) ;
#195 = CONICAL_SURFACE ( 'NONE', #127, 0.7499999999999977796, 0.5235987755983009251 ) ;
#196 = DIRECTION ( 'NONE',  ( -3.491481338843133355E-15, 1.224646799147353207E-16, -1.000000000000000000 ) ) ;
#197 = EDGE_LOOP ( 'NONE', ( #45 ) ) ;
#198 = APPROVAL ( #51, 'UNSPECIFIED' ) ;
#199 = CARTESIAN_POINT ( 'NONE',  ( 3.958838484084750689E-14, -1.388573618864634643E-15, 11.33856406460551547 ) ) ;
#200 = APPLICATION_PROTOCOL_DEFINITION ( 'international standard', 'config_control_design', 1994, #103 ) ;
#201 = CARTESIAN_POINT ( 'NONE',  ( 3.910459099504309989E-14, 0.6699999999999934897, 11.20000000000000107 ) ) ;
#202 = VERTEX_POINT ( 'NONE', #46 ) ;
#203 = AXIS2_PLACEMENT_3D ( 'NONE', #90, #52, #137 ) ;
#204 = ORIENTED_EDGE ( 'NONE', *, *, #167, .T. ) ;
#205 = VERTEX_POINT ( 'NONE', #75 ) ;
#206 = COORDINATED_UNIVERSAL_TIME_OFFSET ( 1, 0, .AHEAD. ) ;
#207 = APPROVAL_ROLE ( '' ) ;
#208 = CALENDAR_DATE ( 2021, 7, 10 ) ;
#209 = EDGE_CURVE ( 'NONE', #160, #160, #94, .T. ) ;
#210 = CARTESIAN_POINT ( 'NONE',  ( 3.910459099504309989E-14, 0.6699999999999934897, 11.20000000000000107 ) ) ;
#211 = DIRECTION ( 'NONE',  ( -4.275831445896958607E-31, -1.000000000000000000, -1.224646799147353207E-16 ) ) ;
#212 = EDGE_LOOP ( 'NONE', ( #191 ) ) ;
#213 = ORIENTED_EDGE ( 'NONE', *, *, #72, .T. ) ;
#214 = AXIS2_PLACEMENT_3D ( 'NONE', #161, #136, #163 ) ;
#215 = FACE_OUTER_BOUND ( 'NONE', #33, .T. ) ;
#216 = DIRECTION ( 'NONE',  ( 3.491481338843133355E-15, -1.224646799147353207E-16, 1.000000000000000000 ) ) ;
#217 = LOCAL_TIME ( 15, 48, 11.00000000000000000, #17 ) ;
#218 = CARTESIAN_POINT ( 'NONE',  ( 1.405588737848910673E-15, -4.930141626632861223E-17, 0.4025766147484660662 ) ) ;
#219 = APPROVAL_STATUS ( 'not_yet_approved' ) ;
#220 = EDGE_CURVE ( 'NONE', #205, #205, #82, .T. ) ;
#221 = AXIS2_PLACEMENT_3D ( 'NONE', #173, #24, #8 ) ;
#222 = LOCAL_TIME ( 15, 48, 11.00000000000000000, #135 ) ;
#223 = PERSON_AND_ORGANIZATION ( #187, #110 ) ;
ENDSEC;
END-ISO-10303-21;
