ISO-10303-21;
HEADER;
FILE_DESCRIPTION (( 'STEP AP203' ),
    '1' );
FILE_NAME ('45717.step',
    '2021-10-07T13:48:11',
    ( '' ),
    ( '' ),
    'SwSTEP 2.0',
    'SolidWorks 2019',
    '' );
FILE_SCHEMA (( 'CONFIG_CONTROL_DESIGN' ));
ENDSEC;

DATA;
#1 = AXIS2_PLACEMENT_3D ( 'NONE', #20, #152, #149 ) ;
#2 = DIRECTION ( 'NONE',  ( 0.0000000000000000000, 0.0000000000000000000, 1.000000000000000000 ) ) ;
#3 = ORIENTED_EDGE ( 'NONE', *, *, #131, .F. ) ;
#4 = CARTESIAN_POINT ( 'NONE',  ( 3.491481338843133355E-14, 4.611761331685201333E-33, 10.00000000000000000 ) ) ;
#5 = SECURITY_CLASSIFICATION_LEVEL ( 'unclassified' ) ;
#6 = LOCAL_TIME ( 15, 48, 11.00000000000000000, #172 ) ;
#7 = PERSON_AND_ORGANIZATION ( #68, #155 ) ;
#8 = DIRECTION ( 'NONE',  ( 4.275831445896958607E-31, 1.000000000000000000, 1.224646799147353454E-16 ) ) ;
#9 = EDGE_CURVE ( 'NONE', #82, #82, #64, .T. ) ;
#10 = CIRCLE ( 'NONE', #182, 0.6150000000000008793 ) ;
#11 = CARTESIAN_POINT ( 'NONE',  ( 1.047444401652940007E-13, -3.673940397442059178E-15, 30.00000000000000000 ) ) ;
#12 = CC_DESIGN_APPROVAL ( #66, ( #122 ) ) ;
#13 = CARTESIAN_POINT ( 'NONE',  ( 3.573121550322624710E-14, -1.253282330592925703E-15, 10.23382685902179823 ) ) ;
#14 = ADVANCED_FACE ( 'NONE', ( #176, #161 ), #197, .T. ) ;
#15 = FACE_OUTER_BOUND ( 'NONE', #42, .T. ) ;
#16 = CC_DESIGN_DATE_AND_TIME_ASSIGNMENT ( #214, #123, ( #219 ) ) ;
#17 = LOCAL_TIME ( 15, 48, 11.00000000000000000, #144 ) ;
#18 = AXIS2_PLACEMENT_3D ( 'NONE', #138, #102, #83 ) ;
#19 = APPLICATION_PROTOCOL_DEFINITION ( 'international standard', 'config_control_design', 1994, #101 ) ;
#20 = CARTESIAN_POINT ( 'NONE',  ( 0.0000000000000000000, 0.0000000000000000000, 0.0000000000000000000 ) ) ;
#21 = CALENDAR_DATE ( 2021, 7, 10 ) ;
#22 = EDGE_LOOP ( 'NONE', ( #3 ) ) ;
#23 = CLOSED_SHELL ( 'NONE', ( #200, #98, #116 ) ) ;
#24 = DIRECTION ( 'NONE',  ( 1.000000000000000000, 0.0000000000000000000, 0.0000000000000000000 ) ) ;
#25 = ORIENTED_EDGE ( 'NONE', *, *, #9, .F. ) ;
#26 = APPROVAL_STATUS ( 'not_yet_approved' ) ;
#27 = APPROVAL_DATE_TIME ( #129, #85 ) ;
#28 = DIRECTION ( 'NONE',  ( 4.275831445896958607E-31, 1.000000000000000000, 1.224646799147353207E-16 ) ) ;
#29 = VERTEX_POINT ( 'NONE', #169 ) ;
#30 = DIRECTION ( 'NONE',  ( -3.131593405507706238E-31, -1.000000000000000000, -8.814651808825255244E-17 ) ) ;
#31 = ADVANCED_FACE ( 'NONE', ( #142 ), #90, .F. ) ;
#32 = CIRCLE ( 'NONE', #213, 0.7499999999999991118 ) ;
#33 =( NAMED_UNIT ( * ) PLANE_ANGLE_UNIT ( ) SI_UNIT ( $, .RADIAN. ) );
#34 = CARTESIAN_POINT ( 'NONE',  ( 1.047444401652940007E-13, 4.124339402320045473E-33, 30.00000000000000000 ) ) ;
#35 = DESIGN_CONTEXT ( 'detailed design', #113, 'design' ) ;
#36 = MANIFOLD_SOLID_BREP ( 'Corps-Déplacer/Copier1[2]', #23 ) ;
#37 = CALENDAR_DATE ( 2021, 7, 10 ) ;
#38 = ORIENTED_EDGE ( 'NONE', *, *, #72, .T. ) ;
#39 = APPROVAL_ROLE ( '' ) ;
#40 = ORIENTED_EDGE ( 'NONE', *, *, #222, .F. ) ;
#41 = COORDINATED_UNIVERSAL_TIME_OFFSET ( 1, 0, .AHEAD. ) ;
#42 = EDGE_LOOP ( 'NONE', ( #40 ) ) ;
#43 = CC_DESIGN_PERSON_AND_ORGANIZATION_ASSIGNMENT ( #76, #77, ( #219 ) ) ;
#44 = PERSON_AND_ORGANIZATION_ROLE ( 'creator' ) ;
#45 = EDGE_LOOP ( 'NONE', ( #74 ) ) ;
#46 = CARTESIAN_POINT ( 'NONE',  ( 3.491481338843133355E-14, -1.224646799147353256E-15, 10.00000000000000000 ) ) ;
#47 = CIRCLE ( 'NONE', #18, 0.6149999999999988809 ) ;
#48 = LOCAL_TIME ( 15, 48, 11.00000000000000000, #146 ) ;
#49 = CARTESIAN_POINT ( 'NONE',  ( 3.491481338843133355E-14, 4.611761331685201333E-33, 10.00000000000000000 ) ) ;
#50 = DIRECTION ( 'NONE',  ( 3.491481338843133355E-15, -1.224646799147353207E-16, 1.000000000000000000 ) ) ;
#51 = FACE_BOUND ( 'NONE', #196, .T. ) ;
#52 = LOCAL_TIME ( 15, 48, 11.00000000000000000, #127 ) ;
#53 = CARTESIAN_POINT ( 'NONE',  ( 1.040461438975253866E-13, 0.7499999999999954481, 29.80000000000000426 ) ) ;
#54 = CALENDAR_DATE ( 2021, 7, 10 ) ;
#55 = DIRECTION ( 'NONE',  ( -3.491481338843133355E-15, 1.224646799147353207E-16, -1.000000000000000000 ) ) ;
#56 = AXIS2_PLACEMENT_3D ( 'NONE', #145, #180, #8 ) ;
#57 = EDGE_LOOP ( 'NONE', ( #38 ) ) ;
#58 = CC_DESIGN_PERSON_AND_ORGANIZATION_ASSIGNMENT ( #111, #44, ( #79 ) ) ;
#59 = EDGE_LOOP ( 'NONE', ( #140 ) ) ;
#60 = APPROVAL_STATUS ( 'not_yet_approved' ) ;
#61 = ORIENTED_EDGE ( 'NONE', *, *, #190, .F. ) ;
#62 = APPLICATION_PROTOCOL_DEFINITION ( 'international standard', 'config_control_design', 1994, #113 ) ;
#63 = CC_DESIGN_APPROVAL ( #85, ( #219 ) ) ;
#64 = CIRCLE ( 'NONE', #93, 0.7499999999999976685 ) ;
#65 = PLANE ( 'NONE',  #71 ) ;
#66 = APPROVAL ( #89, 'UNSPECIFIED' ) ;
#67 = FACE_OUTER_BOUND ( 'NONE', #22, .T. ) ;
#68 = PERSON ( 'UNSPECIFIED', 'UNSPECIFIED', 'UNSPECIFIED', ('UNSPECIFIED'), ('UNSPECIFIED'), ('UNSPECIFIED') ) ;
#69 = DIRECTION ( 'NONE',  ( 0.0000000000000000000, -1.000000000000000000, 0.0000000000000000000 ) ) ;
#70 = CARTESIAN_POINT ( 'NONE',  ( 1.290204587726994827E-15, -4.525428508028705897E-17, 0.3695292807019530112 ) ) ;
#71 = AXIS2_PLACEMENT_3D ( 'NONE', #49, #119, #221 ) ;
#72 = EDGE_CURVE ( 'NONE', #29, #29, #10, .T. ) ;
#73 = CALENDAR_DATE ( 2021, 7, 10 ) ;
#74 = ORIENTED_EDGE ( 'NONE', *, *, #190, .T. ) ;
#75 = DIRECTION ( 'NONE',  ( 3.491481338843133355E-15, -1.224646799147353207E-16, 1.000000000000000000 ) ) ;
#76 = PERSON_AND_ORGANIZATION ( #68, #155 ) ;
#77 = PERSON_AND_ORGANIZATION_ROLE ( 'classification_officer' ) ;
#78 = DIRECTION ( 'NONE',  ( -4.275831445896958607E-31, -1.000000000000000000, -1.224646799147353207E-16 ) ) ;
#79 = PRODUCT_DEFINITION_FORMATION_WITH_SPECIFIED_SOURCE ( 'ANY', '', #181, .NOT_KNOWN. ) ;
#80 = DIRECTION ( 'NONE',  ( 0.0000000000000000000, 1.000000000000000000, 0.0000000000000000000 ) ) ;
#81 = DIRECTION ( 'NONE',  ( 0.0000000000000000000, 1.000000000000000000, 0.0000000000000000000 ) ) ;
#82 = VERTEX_POINT ( 'NONE', #100 ) ;
#83 = DIRECTION ( 'NONE',  ( 3.131593405507706238E-31, 1.000000000000000000, 8.814651808825255244E-17 ) ) ;
#84 = AXIS2_PLACEMENT_3D ( 'NONE', #136, #105, #80 ) ;
#85 = APPROVAL ( #60, 'UNSPECIFIED' ) ;
#86 = EDGE_CURVE ( 'NONE', #205, #205, #104, .T. ) ;
#87 = AXIS2_PLACEMENT_3D ( 'NONE', #91, #2, #24 ) ;
#88 = UNCERTAINTY_MEASURE_WITH_UNIT (LENGTH_MEASURE( 1.000000000000000082E-05 ), #187, 'distance_accuracy_value', 'NONE');
#89 = APPROVAL_STATUS ( 'not_yet_approved' ) ;
#90 = PLANE ( 'NONE',  #153 ) ;
#91 = CARTESIAN_POINT ( 'NONE',  ( 0.0000000000000000000, 0.0000000000000000000, 0.0000000000000000000 ) ) ;
#92 = EDGE_LOOP ( 'NONE', ( #61 ) ) ;
#93 = AXIS2_PLACEMENT_3D ( 'NONE', #126, #198, #130 ) ;
#94 = PERSON_AND_ORGANIZATION ( #68, #155 ) ;
#95 = CONICAL_SURFACE ( 'NONE', #174, 0.5499999999999990452, 0.7853981633974602694 ) ;
#96 = PERSON_AND_ORGANIZATION ( #68, #155 ) ;
#97 = EDGE_LOOP ( 'NONE', ( #212 ) ) ;
#98 = ADVANCED_FACE ( 'NONE', ( #192, #108 ), #173, .T. ) ;
#99 = CC_DESIGN_PERSON_AND_ORGANIZATION_ASSIGNMENT ( #94, #162, ( #79 ) ) ;
#100 = CARTESIAN_POINT ( 'NONE',  ( 3.573121550322624710E-14, 0.7499999999999963363, 10.23382685902179823 ) ) ;
#101 = APPLICATION_CONTEXT ( 'configuration controlled 3d designs of mechanical parts and assemblies' ) ;
#102 = DIRECTION ( 'NONE',  ( -3.491481338843133355E-15, 1.224646799147353207E-16, -1.000000000000000000 ) ) ;
#103 = DIRECTION ( 'NONE',  ( 3.491481338843133355E-15, -1.224646799147353207E-16, 1.000000000000000000 ) ) ;
#104 = CIRCLE ( 'NONE', #135, 0.6150000000000008793 ) ;
#105 = DIRECTION ( 'NONE',  ( -3.491481338843133355E-15, 1.224646799147353207E-16, -1.000000000000000000 ) ) ;
#106 = CC_DESIGN_DATE_AND_TIME_ASSIGNMENT ( #195, #177, ( #122 ) ) ;
#107 = APPROVAL_ROLE ( '' ) ;
#108 = FACE_OUTER_BOUND ( 'NONE', #57, .T. ) ;
#109 = CC_DESIGN_APPROVAL ( #184, ( #79 ) ) ;
#110 = APPROVAL_DATE_TIME ( #157, #66 ) ;
#111 = PERSON_AND_ORGANIZATION ( #68, #155 ) ;
#112 = EDGE_LOOP ( 'NONE', ( #163 ) ) ;
#113 = APPLICATION_CONTEXT ( 'configuration controlled 3d designs of mechanical parts and assemblies' ) ;
#114 = PERSON_AND_ORGANIZATION ( #68, #155 ) ;
#115 = PRODUCT_DEFINITION_SHAPE ( 'NONE', 'NONE',  #122 ) ;
#116 = ADVANCED_FACE ( 'NONE', ( #120 ), #65, .T. ) ;
#117 = SHAPE_DEFINITION_REPRESENTATION ( #115, #208 ) ;
#118 = APPROVAL_PERSON_ORGANIZATION ( #132, #184, #159 ) ;
#119 = DIRECTION ( 'NONE',  ( 3.491481338843133355E-15, -1.224646799147353207E-16, 1.000000000000000000 ) ) ;
#120 = FACE_OUTER_BOUND ( 'NONE', #97, .T. ) ;
#121 = AXIS2_PLACEMENT_3D ( 'NONE', #34, #168, #28 ) ;
#122 = PRODUCT_DEFINITION ( 'UNKNOWN', '', #79, #35 ) ;
#123 = DATE_TIME_ROLE ( 'classification_date' ) ;
#124 = DIRECTION ( 'NONE',  ( 0.0000000000000000000, 1.000000000000000000, 0.0000000000000000000 ) ) ;
#125 = MECHANICAL_CONTEXT ( 'NONE', #101, 'mechanical' ) ;
#126 = CARTESIAN_POINT ( 'NONE',  ( 3.573121550322624710E-14, -1.253282330592925703E-15, 10.23382685902179823 ) ) ;
#127 = COORDINATED_UNIVERSAL_TIME_OFFSET ( 1, 0, .AHEAD. ) ;
#128 = CARTESIAN_POINT ( 'NONE',  ( 3.491481338843133355E-14, -1.224646799147353256E-15, 10.00000000000000000 ) ) ;
#129 = DATE_AND_TIME ( #73, #48 ) ;
#130 = DIRECTION ( 'NONE',  ( 0.0000000000000000000, 1.000000000000000000, 0.0000000000000000000 ) ) ;
#131 = EDGE_CURVE ( 'NONE', #167, #167, #201, .T. ) ;
#132 = PERSON_AND_ORGANIZATION ( #68, #155 ) ;
#133 = ORIENTED_EDGE ( 'NONE', *, *, #86, .T. ) ;
#134 = VERTEX_POINT ( 'NONE', #170 ) ;
#135 = AXIS2_PLACEMENT_3D ( 'NONE', #46, #55, #124 ) ;
#136 = CARTESIAN_POINT ( 'NONE',  ( 1.047444401652940007E-13, -3.673940397442059178E-15, 30.00000000000000000 ) ) ;
#137 = CARTESIAN_POINT ( 'NONE',  ( 3.491481338843133355E-14, 0.6149999999999996581, 10.00000000000000000 ) ) ;
#138 = CARTESIAN_POINT ( 'NONE',  ( 1.290204587726994827E-15, -4.525428508028705897E-17, 0.3695292807019530112 ) ) ;
#139 = CC_DESIGN_SECURITY_CLASSIFICATION ( #219, ( #79 ) ) ;
#140 = ORIENTED_EDGE ( 'NONE', *, *, #86, .F. ) ;
#141 = CALENDAR_DATE ( 2021, 7, 10 ) ;
#142 = FACE_OUTER_BOUND ( 'NONE', #211, .T. ) ;
#143 =( GEOMETRIC_REPRESENTATION_CONTEXT ( 3 ) GLOBAL_UNCERTAINTY_ASSIGNED_CONTEXT ( ( #88 ) ) GLOBAL_UNIT_ASSIGNED_CONTEXT ( ( #187, #33, #193 ) ) REPRESENTATION_CONTEXT ( 'NONE', 'WORKASPACE' ) );
#144 = COORDINATED_UNIVERSAL_TIME_OFFSET ( 1, 0, .AHEAD. ) ;
#145 = CARTESIAN_POINT ( 'NONE',  ( 0.0000000000000000000, 0.0000000000000000000, 0.0000000000000000000 ) ) ;
#146 = COORDINATED_UNIVERSAL_TIME_OFFSET ( 1, 0, .AHEAD. ) ;
#147 = DIRECTION ( 'NONE',  ( -3.491481338843133355E-15, 1.224646799147353207E-16, -1.000000000000000000 ) ) ;
#148 = FACE_OUTER_BOUND ( 'NONE', #45, .T. ) ;
#149 = DIRECTION ( 'NONE',  ( 4.275831445896958607E-31, 1.000000000000000000, 1.224646799147353207E-16 ) ) ;
#150 = CONICAL_SURFACE ( 'NONE', #209, 0.7499999999999976685, 0.5235987755982900449 ) ;
#151 = ADVANCED_FACE ( 'NONE', ( #15, #51 ), #95, .T. ) ;
#152 = DIRECTION ( 'NONE',  ( -3.491481338843133355E-15, 1.224646799147353207E-16, -1.000000000000000000 ) ) ;
#153 = AXIS2_PLACEMENT_3D ( 'NONE', #4, #75, #78 ) ;
#154 = CARTESIAN_POINT ( 'NONE',  ( 1.040461438975253866E-13, -3.649447461459112464E-15, 29.80000000000000426 ) ) ;
#155 = ORGANIZATION ( 'UNSPECIFIED', 'UNSPECIFIED', '' ) ;
#156 = CC_DESIGN_PERSON_AND_ORGANIZATION_ASSIGNMENT ( #7, #191, ( #181 ) ) ;
#157 = DATE_AND_TIME ( #37, #6 ) ;
#158 = EDGE_LOOP ( 'NONE', ( #178 ) ) ;
#159 = APPROVAL_ROLE ( '' ) ;
#160 = CLOSED_SHELL ( 'NONE', ( #31, #216, #14, #151, #183 ) ) ;
#161 = FACE_OUTER_BOUND ( 'NONE', #112, .T. ) ;
#162 = PERSON_AND_ORGANIZATION_ROLE ( 'design_supplier' ) ;
#163 = ORIENTED_EDGE ( 'NONE', *, *, #222, .T. ) ;
#164 = PERSON_AND_ORGANIZATION_ROLE ( 'creator' ) ;
#165 = ORIENTED_EDGE ( 'NONE', *, *, #131, .T. ) ;
#166 = CARTESIAN_POINT ( 'NONE',  ( 1.047444401652940007E-13, 0.5499999999999953815, 30.00000000000000000 ) ) ;
#167 = VERTEX_POINT ( 'NONE', #166 ) ;
#168 = DIRECTION ( 'NONE',  ( -3.491481338843133355E-15, 1.224646799147353207E-16, -1.000000000000000000 ) ) ;
#169 = CARTESIAN_POINT ( 'NONE',  ( 3.491481338843133355E-14, 0.6149999999999996581, 10.00000000000000000 ) ) ;
#170 = CARTESIAN_POINT ( 'NONE',  ( 1.290204587726995025E-15, 0.6149999999999988809, 0.3695292807019530668 ) ) ;
#171 = LOCAL_TIME ( 15, 48, 11.00000000000000000, #41 ) ;
#172 = COORDINATED_UNIVERSAL_TIME_OFFSET ( 1, 0, .AHEAD. ) ;
#173 = CYLINDRICAL_SURFACE ( 'NONE', #1, 0.6149999999999998801 ) ;
#174 = AXIS2_PLACEMENT_3D ( 'NONE', #11, #203, #81 ) ;
#175 = PERSON_AND_ORGANIZATION ( #68, #155 ) ;
#176 = FACE_OUTER_BOUND ( 'NONE', #194, .T. ) ;
#177 = DATE_TIME_ROLE ( 'creation_date' ) ;
#178 = ORIENTED_EDGE ( 'NONE', *, *, #9, .T. ) ;
#179 = DATE_AND_TIME ( #141, #171 ) ;
#180 = DIRECTION ( 'NONE',  ( -3.491481338843133355E-15, 1.224646799147353207E-16, -1.000000000000000000 ) ) ;
#181 = PRODUCT ( '45717', '45717', '', ( #125 ) ) ;
#182 = AXIS2_PLACEMENT_3D ( 'NONE', #128, #147, #215 ) ;
#183 = ADVANCED_FACE ( 'NONE', ( #67 ), #220, .F. ) ;
#184 = APPROVAL ( #26, 'UNSPECIFIED' ) ;
#185 = DIRECTION ( 'NONE',  ( 0.0000000000000000000, 1.000000000000000000, 0.0000000000000000000 ) ) ;
#186 = FACE_OUTER_BOUND ( 'NONE', #158, .T. ) ;
#187 =( LENGTH_UNIT ( ) NAMED_UNIT ( * ) SI_UNIT ( .MILLI., .METRE. ) );
#188 = APPROVAL_PERSON_ORGANIZATION ( #114, #85, #107 ) ;
#189 = MANIFOLD_SOLID_BREP ( 'Corps-Déplacer/Copier1[1]', #160 ) ;
#190 = EDGE_CURVE ( 'NONE', #134, #134, #47, .T. ) ;
#191 = PERSON_AND_ORGANIZATION_ROLE ( 'design_owner' ) ;
#192 = FACE_OUTER_BOUND ( 'NONE', #92, .T. ) ;
#193 =( NAMED_UNIT ( * ) SI_UNIT ( $, .STERADIAN. ) SOLID_ANGLE_UNIT ( ) );
#194 = EDGE_LOOP ( 'NONE', ( #25 ) ) ;
#195 = DATE_AND_TIME ( #21, #52 ) ;
#196 = EDGE_LOOP ( 'NONE', ( #165 ) ) ;
#197 = CYLINDRICAL_SURFACE ( 'NONE', #56, 0.7499999999999983347 ) ;
#198 = DIRECTION ( 'NONE',  ( -3.491481338843133355E-15, 1.224646799147353207E-16, -1.000000000000000000 ) ) ;
#199 = CONICAL_SURFACE ( 'NONE', #206, 0.6149999999999988809, 1.029744258676649649 ) ;
#200 = ADVANCED_FACE ( 'NONE', ( #148 ), #199, .T. ) ;
#201 = CIRCLE ( 'NONE', #84, 0.5499999999999990452 ) ;
#202 = VERTEX_POINT ( 'NONE', #53 ) ;
#203 = DIRECTION ( 'NONE',  ( -3.491481338843133355E-15, 1.224646799147353207E-16, -1.000000000000000000 ) ) ;
#204 = DIRECTION ( 'NONE',  ( -3.491481338843133355E-15, 1.224646799147353207E-16, -1.000000000000000000 ) ) ;
#205 = VERTEX_POINT ( 'NONE', #137 ) ;
#206 = AXIS2_PLACEMENT_3D ( 'NONE', #70, #50, #30 ) ;
#207 = PRODUCT_RELATED_PRODUCT_CATEGORY ( 'detail', '', ( #181 ) ) ;
#208 = ADVANCED_BREP_SHAPE_REPRESENTATION ( '45717', ( #189, #36, #87 ), #143 ) ;
#209 = AXIS2_PLACEMENT_3D ( 'NONE', #13, #103, #69 ) ;
#210 = APPROVAL_DATE_TIME ( #179, #184 ) ;
#211 = EDGE_LOOP ( 'NONE', ( #133 ) ) ;
#212 = ORIENTED_EDGE ( 'NONE', *, *, #72, .F. ) ;
#213 = AXIS2_PLACEMENT_3D ( 'NONE', #154, #204, #185 ) ;
#214 = DATE_AND_TIME ( #54, #17 ) ;
#215 = DIRECTION ( 'NONE',  ( 0.0000000000000000000, 1.000000000000000000, 0.0000000000000000000 ) ) ;
#216 = ADVANCED_FACE ( 'NONE', ( #218, #186 ), #150, .T. ) ;
#217 = APPROVAL_PERSON_ORGANIZATION ( #175, #66, #39 ) ;
#218 = FACE_BOUND ( 'NONE', #59, .T. ) ;
#219 = SECURITY_CLASSIFICATION ( '', '', #5 ) ;
#220 = PLANE ( 'NONE',  #121 ) ;
#221 = DIRECTION ( 'NONE',  ( -4.275831445896958607E-31, -1.000000000000000000, -1.224646799147353207E-16 ) ) ;
#222 = EDGE_CURVE ( 'NONE', #202, #202, #32, .T. ) ;
#223 = CC_DESIGN_PERSON_AND_ORGANIZATION_ASSIGNMENT ( #96, #164, ( #122 ) ) ;
ENDSEC;
END-ISO-10303-21;
