ISO-10303-21;
HEADER;
FILE_DESCRIPTION (( 'STEP AP203' ),
    '1' );
FILE_NAME ('4571.step',
    '2021-09-03T07:22:36',
    ( '' ),
    ( '' ),
    'SwSTEP 2.0',
    'SolidWorks 2019',
    '' );
FILE_SCHEMA (( 'CONFIG_CONTROL_DESIGN' ));
ENDSEC;

DATA;
#1 = VECTOR ( 'NONE', #308, 1000.000000000000114 ) ;
#2 = CARTESIAN_POINT ( 'NONE',  ( 4.038445254267416476E-15, -1.416495915114673740E-16, 1.156656691628062283 ) ) ;
#3 = APPLICATION_CONTEXT ( 'configuration controlled 3d designs of mechanical parts and assemblies' ) ;
#4 = DIRECTION ( 'NONE',  ( 1.903218546456021928E-15, 0.8571673007021098911, 0.5150380749100583744 ) ) ;
#5 = PLANE ( 'NONE',  #268 ) ;
#6 = DIRECTION ( 'NONE',  ( 0.0000000000000000000, 1.000000000000000000, 0.0000000000000000000 ) ) ;
#7 = ORIENTED_EDGE ( 'NONE', *, *, #274, .F. ) ;
#8 = DIRECTION ( 'NONE',  ( -4.001932351973489870E-31, -1.000000000000000000, -1.126443815569358851E-16 ) ) ;
#9 = CARTESIAN_POINT ( 'NONE',  ( 1.920314736363723472E-13, -6.735557395310442615E-15, 55.00000000000000000 ) ) ;
#10 = CARTESIAN_POINT ( 'NONE',  ( 0.0000000000000000000, 0.0000000000000000000, 0.0000000000000000000 ) ) ;
#11 = CARTESIAN_POINT ( 'NONE',  ( 4.274189763103281952E-15, 1.924999999999993827, 1.156656691628062505 ) ) ;
#12 = DIRECTION ( 'NONE',  ( -3.491481338843133355E-15, 1.224646799147353207E-16, -1.000000000000000000 ) ) ;
#13 = ORIENTED_EDGE ( 'NONE', *, *, #325, .T. ) ;
#14 = CARTESIAN_POINT ( 'NONE',  ( 4.038445254267416476E-15, -1.416495915114673740E-16, 1.156656691628062283 ) ) ;
#15 = ORIENTED_EDGE ( 'NONE', *, *, #337, .T. ) ;
#16 = DESIGN_CONTEXT ( 'detailed design', #335, 'design' ) ;
#17 = CC_DESIGN_APPROVAL ( #251, ( #205 ) ) ;
#18 = APPROVAL_ROLE ( '' ) ;
#19 = EDGE_CURVE ( 'NONE', #212, #170, #231, .T. ) ;
#20 = CARTESIAN_POINT ( 'NONE',  ( 1.920314736363723472E-13, 1.524999999999993916, 55.00000000000000000 ) ) ;
#21 = DIRECTION ( 'NONE',  ( 4.275831445896958607E-31, 1.000000000000000000, 1.224646799147353207E-16 ) ) ;
#22 = CONICAL_SURFACE ( 'NONE', #80, 1.525000000000000577, 0.7853981633974512766 ) ;
#23 = COORDINATED_UNIVERSAL_TIME_OFFSET ( 1, 0, .AHEAD. ) ;
#24 = DIRECTION ( 'NONE',  ( 3.491481338843133355E-15, -1.224646799147353207E-16, 1.000000000000000000 ) ) ;
#25 = DIRECTION ( 'NONE',  ( -3.491481338843133355E-15, 1.224646799147353207E-16, -1.000000000000000000 ) ) ;
#26 = FACE_OUTER_BOUND ( 'NONE', #233, .T. ) ;
#27 = CC_DESIGN_DATE_AND_TIME_ASSIGNMENT ( #307, #105, ( #205 ) ) ;
#28 = PRODUCT_DEFINITION_SHAPE ( 'NONE', 'NONE',  #205 ) ;
#29 = AXIS2_PLACEMENT_3D ( 'NONE', #259, #65, #66 ) ;
#30 = FACE_OUTER_BOUND ( 'NONE', #297, .T. ) ;
#31 = AXIS2_PLACEMENT_3D ( 'NONE', #14, #25, #235 ) ;
#32 = ADVANCED_FACE ( 'NONE', ( #273 ), #5, .F. ) ;
#33 = CONICAL_SURFACE ( 'NONE', #64, 1.924999999999994049, 1.029744258676649871 ) ;
#34 = VERTEX_POINT ( 'NONE', #192 ) ;
#35 = CARTESIAN_POINT ( 'NONE',  ( 4.038445254267416476E-15, -1.416495915114673740E-16, 1.156656691628062283 ) ) ;
#36 = LINE ( 'NONE', #168, #224 ) ;
#37 = CIRCLE ( 'NONE', #139, 1.924999999999996048 ) ;
#38 = CARTESIAN_POINT ( 'NONE',  ( 0.0000000000000000000, 0.0000000000000000000, 0.0000000000000000000 ) ) ;
#39 = LINE ( 'NONE', #136, #142 ) ;
#40 = EDGE_LOOP ( 'NONE', ( #45, #223, #195, #222 ) ) ;
#41 = ORIENTED_EDGE ( 'NONE', *, *, #313, .F. ) ;
#42 = CARTESIAN_POINT ( 'NONE',  ( 1.906348811008350938E-13, -6.686571523344548398E-15, 54.60000000000000142 ) ) ;
#43 = DIRECTION ( 'NONE',  ( 0.0000000000000000000, 0.0000000000000000000, 1.000000000000000000 ) ) ;
#44 = CARTESIAN_POINT ( 'NONE',  ( 4.038445254267416476E-15, -1.416495915114673740E-16, 1.156656691628062283 ) ) ;
#45 = ORIENTED_EDGE ( 'NONE', *, *, #234, .T. ) ;
#46 = PERSON_AND_ORGANIZATION_ROLE ( 'design_owner' ) ;
#47 =( GEOMETRIC_REPRESENTATION_CONTEXT ( 3 ) GLOBAL_UNCERTAINTY_ASSIGNED_CONTEXT ( ( #74 ) ) GLOBAL_UNIT_ASSIGNED_CONTEXT ( ( #122, #118, #319 ) ) REPRESENTATION_CONTEXT ( 'NONE', 'WORKASPACE' ) );
#48 = SHAPE_DEFINITION_REPRESENTATION ( #28, #254 ) ;
#49 = LINE ( 'NONE', #314, #137 ) ;
#50 = ORIENTED_EDGE ( 'NONE', *, *, #300, .T. ) ;
#51 = DATE_AND_TIME ( #126, #55 ) ;
#52 = FACE_OUTER_BOUND ( 'NONE', #310, .T. ) ;
#53 = APPROVAL_ROLE ( '' ) ;
#54 = DIRECTION ( 'NONE',  ( -3.491481338843133355E-15, 1.224646799147353207E-16, -1.000000000000000000 ) ) ;
#55 = LOCAL_TIME ( 9, 22, 36.00000000000000000, #77 ) ;
#56 = CARTESIAN_POINT ( 'NONE',  ( 1.920314736363723472E-13, -6.735557395310442615E-15, 55.00000000000000000 ) ) ;
#57 = CARTESIAN_POINT ( 'NONE',  ( 8.230975533351623729E-31, 1.924999999999994937, 2.357445088358648348E-16 ) ) ;
#58 = DIRECTION ( 'NONE',  ( -3.491481338843133355E-15, 1.224646799147353207E-16, -1.000000000000000000 ) ) ;
#59 = CARTESIAN_POINT ( 'NONE',  ( 1.252307764394198834E-13, -1.925000000000007372, 54.60000000000000142 ) ) ;
#60 = MANIFOLD_SOLID_BREP ( 'Corps-Déplacer/Copier1[2]', #83 ) ;
#61 = LOCAL_TIME ( 9, 22, 36.00000000000000000, #285 ) ;
#62 = CLOSED_SHELL ( 'NONE', ( #104, #277, #261, #242, #289, #32 ) ) ;
#63 = DIRECTION ( 'NONE',  ( -3.491481338843133355E-15, 1.224646799147353207E-16, -1.000000000000000000 ) ) ;
#64 = AXIS2_PLACEMENT_3D ( 'NONE', #2, #262, #303 ) ;
#65 = DIRECTION ( 'NONE',  ( -3.491481338843133355E-15, 1.224646799147353207E-16, -1.000000000000000000 ) ) ;
#66 = DIRECTION ( 'NONE',  ( 4.275831445896958607E-31, 1.000000000000000000, 1.224646799147352961E-16 ) ) ;
#67 = EDGE_CURVE ( 'NONE', #34, #292, #296, .T. ) ;
#68 = EDGE_LOOP ( 'NONE', ( #13, #82 ) ) ;
#69 = AXIS2_PLACEMENT_3D ( 'NONE', #56, #58, #84 ) ;
#70 = DIRECTION ( 'NONE',  ( 1.000000000000000000, 0.0000000000000000000, 0.0000000000000000000 ) ) ;
#71 = DIRECTION ( 'NONE',  ( -3.491481338843133355E-15, 1.224646799147353207E-16, -1.000000000000000000 ) ) ;
#72 = DIRECTION ( 'NONE',  ( 4.001932351973489870E-31, 1.000000000000000000, 1.126443815569358851E-16 ) ) ;
#73 = ORIENTED_EDGE ( 'NONE', *, *, #181, .T. ) ;
#74 = UNCERTAINTY_MEASURE_WITH_UNIT (LENGTH_MEASURE( 1.000000000000000082E-05 ), #122, 'distance_accuracy_value', 'NONE');
#75 = CARTESIAN_POINT ( 'NONE',  ( 0.0000000000000000000, 0.0000000000000000000, 0.0000000000000000000 ) ) ;
#76 = DATE_AND_TIME ( #260, #61 ) ;
#77 = COORDINATED_UNIVERSAL_TIME_OFFSET ( 1, 0, .AHEAD. ) ;
#78 = FACE_OUTER_BOUND ( 'NONE', #143, .T. ) ;
#79 = EDGE_LOOP ( 'NONE', ( #232, #208, #15, #317 ) ) ;
#80 = AXIS2_PLACEMENT_3D ( 'NONE', #9, #115, #326 ) ;
#81 = PERSON_AND_ORGANIZATION ( #227, #286 ) ;
#82 = ORIENTED_EDGE ( 'NONE', *, *, #19, .T. ) ;
#83 = CLOSED_SHELL ( 'NONE', ( #85, #225, #165, #238, #108 ) ) ;
#84 = DIRECTION ( 'NONE',  ( 0.0000000000000000000, 1.000000000000000000, 0.0000000000000000000 ) ) ;
#85 = ADVANCED_FACE ( 'NONE', ( #216 ), #244, .T. ) ;
#86 = DIRECTION ( 'NONE',  ( -3.491481338843133355E-15, 1.224646799147353207E-16, -1.000000000000000000 ) ) ;
#87 = ORIENTED_EDGE ( 'NONE', *, *, #267, .T. ) ;
#88 = APPROVAL_PERSON_ORGANIZATION ( #311, #305, #53 ) ;
#89 = APPLICATION_PROTOCOL_DEFINITION ( 'international standard', 'config_control_design', 1994, #3 ) ;
#90 = DIRECTION ( 'NONE',  ( 4.275831445896958607E-31, 1.000000000000000000, 1.224646799147353207E-16 ) ) ;
#91 = CONICAL_SURFACE ( 'NONE', #178, 1.525000000000000577, 0.7853981633974512766 ) ;
#92 = DIRECTION ( 'NONE',  ( 0.0000000000000000000, 1.000000000000000000, 0.0000000000000000000 ) ) ;
#93 = CC_DESIGN_PERSON_AND_ORGANIZATION_ASSIGNMENT ( #187, #154, ( #119 ) ) ;
#94 = AXIS2_PLACEMENT_3D ( 'NONE', #35, #241, #8 ) ;
#95 = EDGE_CURVE ( 'NONE', #117, #170, #36, .T. ) ;
#96 = ORIENTED_EDGE ( 'NONE', *, *, #274, .T. ) ;
#97 = DIRECTION ( 'NONE',  ( -4.275831445896958607E-31, -1.000000000000000000, -1.224646799147353207E-16 ) ) ;
#98 = FACE_OUTER_BOUND ( 'NONE', #68, .T. ) ;
#99 = VERTEX_POINT ( 'NONE', #11 ) ;
#100 = PERSON_AND_ORGANIZATION ( #227, #286 ) ;
#101 = APPROVAL_PERSON_ORGANIZATION ( #81, #251, #315 ) ;
#102 = APPROVAL_STATUS ( 'not_yet_approved' ) ;
#103 = AXIS2_PLACEMENT_3D ( 'NONE', #151, #24, #97 ) ;
#104 = ADVANCED_FACE ( 'NONE', ( #220 ), #91, .T. ) ;
#105 = DATE_TIME_ROLE ( 'creation_date' ) ;
#106 = ORIENTED_EDGE ( 'NONE', *, *, #325, .F. ) ;
#107 = DIRECTION ( 'NONE',  ( 0.0000000000000000000, 1.000000000000000000, 0.0000000000000000000 ) ) ;
#108 = ADVANCED_FACE ( 'NONE', ( #275 ), #272, .T. ) ;
#109 = SECURITY_CLASSIFICATION ( '', '', #209 ) ;
#110 = VERTEX_POINT ( 'NONE', #75 ) ;
#111 = LINE ( 'NONE', #265, #180 ) ;
#112 = CARTESIAN_POINT ( 'NONE',  ( 1.920314736363723472E-13, -6.735557395310442615E-15, 55.00000000000000000 ) ) ;
#113 = ORIENTED_EDGE ( 'NONE', *, *, #175, .T. ) ;
#114 = EDGE_CURVE ( 'NONE', #188, #212, #49, .T. ) ;
#115 = DIRECTION ( 'NONE',  ( -3.491481338843133355E-15, 1.224646799147353207E-16, -1.000000000000000000 ) ) ;
#116 = CARTESIAN_POINT ( 'NONE',  ( 0.0000000000000000000, 0.0000000000000000000, 0.0000000000000000000 ) ) ;
#117 = VERTEX_POINT ( 'NONE', #287 ) ;
#118 =( NAMED_UNIT ( * ) PLANE_ANGLE_UNIT ( ) SI_UNIT ( $, .RADIAN. ) );
#119 = PRODUCT_DEFINITION_FORMATION_WITH_SPECIFIED_SOURCE ( 'ANY', '', #166, .NOT_KNOWN. ) ;
#120 = FACE_OUTER_BOUND ( 'NONE', #79, .T. ) ;
#121 = DIRECTION ( 'NONE',  ( 0.0000000000000000000, 1.000000000000000000, 0.0000000000000000000 ) ) ;
#122 =( LENGTH_UNIT ( ) NAMED_UNIT ( * ) SI_UNIT ( .MILLI., .METRE. ) );
#123 = CC_DESIGN_PERSON_AND_ORGANIZATION_ASSIGNMENT ( #155, #276, ( #109 ) ) ;
#124 = DATE_AND_TIME ( #228, #135 ) ;
#125 = ORIENTED_EDGE ( 'NONE', *, *, #67, .F. ) ;
#126 = CALENDAR_DATE ( 2021, 3, 9 ) ;
#127 = AXIS2_PLACEMENT_3D ( 'NONE', #38, #304, #138 ) ;
#128 = PRODUCT_RELATED_PRODUCT_CATEGORY ( 'detail', '', ( #166 ) ) ;
#129 = DIRECTION ( 'NONE',  ( -3.491481338843133355E-15, 1.224646799147353207E-16, -1.000000000000000000 ) ) ;
#130 = CYLINDRICAL_SURFACE ( 'NONE', #202, 1.924999999999998268 ) ;
#131 = ORIENTED_EDGE ( 'NONE', *, *, #210, .F. ) ;
#132 = EDGE_LOOP ( 'NONE', ( #162, #131 ) ) ;
#133 = CARTESIAN_POINT ( 'NONE',  ( 5.935518276033326704E-14, -2.081899558550500280E-15, 17.00000000000000000 ) ) ;
#134 = MECHANICAL_CONTEXT ( 'NONE', #3, 'mechanical' ) ;
#135 = LOCAL_TIME ( 9, 22, 36.00000000000000000, #252 ) ;
#136 = CARTESIAN_POINT ( 'NONE',  ( 4.038445254267415687E-15, -1.924999999999994271, 1.156656691628062061 ) ) ;
#137 = VECTOR ( 'NONE', #129, 1000.000000000000000 ) ;
#138 = DIRECTION ( 'NONE',  ( 4.275831445896958607E-31, 1.000000000000000000, 1.224646799147353207E-16 ) ) ;
#139 = AXIS2_PLACEMENT_3D ( 'NONE', #194, #200, #121 ) ;
#140 = ORIENTED_EDGE ( 'NONE', *, *, #19, .F. ) ;
#141 = LINE ( 'NONE', #20, #1 ) ;
#142 = VECTOR ( 'NONE', #328, 1000.000000000000000 ) ;
#143 = EDGE_LOOP ( 'NONE', ( #236, #214, #106, #179 ) ) ;
#144 = APPROVAL ( #177, 'UNSPECIFIED' ) ;
#145 = ORIENTED_EDGE ( 'NONE', *, *, #181, .F. ) ;
#146 = PERSON_AND_ORGANIZATION ( #227, #286 ) ;
#147 = APPROVAL_STATUS ( 'not_yet_approved' ) ;
#148 = VECTOR ( 'NONE', #322, 1000.000000000000000 ) ;
#149 = CC_DESIGN_DATE_AND_TIME_ASSIGNMENT ( #76, #329, ( #109 ) ) ;
#150 = CALENDAR_DATE ( 2021, 3, 9 ) ;
#151 = CARTESIAN_POINT ( 'NONE',  ( 5.935518276033326704E-14, 1.443518790812031516E-32, 17.00000000000000000 ) ) ;
#152 = CARTESIAN_POINT ( 'NONE',  ( 1.906348811008350938E-13, -6.686571523344548398E-15, 54.60000000000000142 ) ) ;
#153 = ORIENTED_EDGE ( 'NONE', *, *, #67, .T. ) ;
#154 = PERSON_AND_ORGANIZATION_ROLE ( 'design_supplier' ) ;
#155 = PERSON_AND_ORGANIZATION ( #227, #286 ) ;
#156 = DIRECTION ( 'NONE',  ( 0.0000000000000000000, 1.000000000000000000, 0.0000000000000000000 ) ) ;
#157 = AXIS2_PLACEMENT_3D ( 'NONE', #152, #86, #6 ) ;
#158 = EDGE_LOOP ( 'NONE', ( #7, #73, #87 ) ) ;
#159 = CYLINDRICAL_SURFACE ( 'NONE', #169, 1.924999999999994937 ) ;
#160 = EDGE_CURVE ( 'NONE', #333, #182, #253, .T. ) ;
#161 = CIRCLE ( 'NONE', #229, 1.525000000000000577 ) ;
#162 = ORIENTED_EDGE ( 'NONE', *, *, #219, .F. ) ;
#163 = CYLINDRICAL_SURFACE ( 'NONE', #127, 1.924999999999998268 ) ;
#164 = DIRECTION ( 'NONE',  ( 0.0000000000000000000, 1.000000000000000000, 0.0000000000000000000 ) ) ;
#165 = ADVANCED_FACE ( 'NONE', ( #52 ), #33, .T. ) ;
#166 = PRODUCT ( '4571', '4571', '', ( #134 ) ) ;
#167 = ORIENTED_EDGE ( 'NONE', *, *, #300, .F. ) ;
#168 = CARTESIAN_POINT ( 'NONE',  ( 8.230975533351637742E-31, 1.924999999999998268, 2.357445088358652785E-16 ) ) ;
#169 = AXIS2_PLACEMENT_3D ( 'NONE', #291, #321, #266 ) ;
#170 = VERTEX_POINT ( 'NONE', #184 ) ;
#171 = DIRECTION ( 'NONE',  ( 0.0000000000000000000, 1.000000000000000000, 0.0000000000000000000 ) ) ;
#172 = CARTESIAN_POINT ( 'NONE',  ( 1.915444289414566393E-13, -1.525000000000007239, 55.00000000000000000 ) ) ;
#173 = AXIS2_PLACEMENT_3D ( 'NONE', #10, #43, #70 ) ;
#174 = CIRCLE ( 'NONE', #31, 1.924999999999994049 ) ;
#175 = EDGE_CURVE ( 'NONE', #188, #117, #306, .T. ) ;
#176 = DIRECTION ( 'NONE',  ( -3.491481338843133355E-15, 1.224646799147353207E-16, -1.000000000000000000 ) ) ;
#177 = APPROVAL_STATUS ( 'not_yet_approved' ) ;
#178 = AXIS2_PLACEMENT_3D ( 'NONE', #221, #298, #171 ) ;
#179 = ORIENTED_EDGE ( 'NONE', *, *, #95, .F. ) ;
#180 = VECTOR ( 'NONE', #4, 1000.000000000000114 ) ;
#181 = EDGE_CURVE ( 'NONE', #110, #99, #111, .T. ) ;
#182 = VERTEX_POINT ( 'NONE', #213 ) ;
#183 = DATE_AND_TIME ( #207, #294 ) ;
#184 = CARTESIAN_POINT ( 'NONE',  ( 5.935518276033326704E-14, 1.924999999999993827, 17.00000000000000000 ) ) ;
#185 = CIRCLE ( 'NONE', #293, 1.924999999999996048 ) ;
#186 = LINE ( 'NONE', #284, #271 ) ;
#187 = PERSON_AND_ORGANIZATION ( #227, #286 ) ;
#188 = VERTEX_POINT ( 'NONE', #59 ) ;
#189 = CC_DESIGN_PERSON_AND_ORGANIZATION_ASSIGNMENT ( #100, #46, ( #166 ) ) ;
#190 = DIRECTION ( 'NONE',  ( -3.491481338843133355E-15, 1.224646799147353207E-16, -1.000000000000000000 ) ) ;
#191 = APPROVAL_PERSON_ORGANIZATION ( #263, #144, #18 ) ;
#192 = CARTESIAN_POINT ( 'NONE',  ( 3.193255851613618081E-14, -1.924999999999998268, 17.00000000000000000 ) ) ;
#193 = EDGE_LOOP ( 'NONE', ( #201, #153, #336, #41 ) ) ;
#194 = CARTESIAN_POINT ( 'NONE',  ( 5.935518276033326704E-14, -2.081899558550500280E-15, 17.00000000000000000 ) ) ;
#195 = ORIENTED_EDGE ( 'NONE', *, *, #270, .F. ) ;
#196 = CC_DESIGN_PERSON_AND_ORGANIZATION_ASSIGNMENT ( #146, #278, ( #205 ) ) ;
#197 = ORIENTED_EDGE ( 'NONE', *, *, #160, .F. ) ;
#198 = AXIS2_PLACEMENT_3D ( 'NONE', #44, #12, #72 ) ;
#199 = ORIENTED_EDGE ( 'NONE', *, *, #234, .F. ) ;
#200 = DIRECTION ( 'NONE',  ( -3.491481338843133355E-15, 1.224646799147353207E-16, -1.000000000000000000 ) ) ;
#201 = ORIENTED_EDGE ( 'NONE', *, *, #219, .T. ) ;
#202 = AXIS2_PLACEMENT_3D ( 'NONE', #116, #257, #21 ) ;
#203 = VECTOR ( 'NONE', #332, 1000.000000000000000 ) ;
#204 = PERSON_AND_ORGANIZATION_ROLE ( 'creator' ) ;
#205 = PRODUCT_DEFINITION ( 'UNKNOWN', '', #119, #16 ) ;
#206 = APPROVAL_DATE_TIME ( #124, #251 ) ;
#207 = CALENDAR_DATE ( 2021, 3, 9 ) ;
#208 = ORIENTED_EDGE ( 'NONE', *, *, #160, .T. ) ;
#209 = SECURITY_CLASSIFICATION_LEVEL ( 'unclassified' ) ;
#210 = EDGE_CURVE ( 'NONE', #34, #215, #302, .T. ) ;
#211 = LOCAL_TIME ( 9, 22, 36.00000000000000000, #23 ) ;
#212 = VERTEX_POINT ( 'NONE', #316 ) ;
#213 = CARTESIAN_POINT ( 'NONE',  ( 1.920314736363723472E-13, 1.524999999999993916, 55.00000000000000000 ) ) ;
#214 = ORIENTED_EDGE ( 'NONE', *, *, #114, .T. ) ;
#215 = VERTEX_POINT ( 'NONE', #318 ) ;
#216 = FACE_OUTER_BOUND ( 'NONE', #193, .T. ) ;
#217 = CARTESIAN_POINT ( 'NONE',  ( 4.038445254267415687E-15, -1.924999999999994271, 1.156656691628062061 ) ) ;
#218 = DIRECTION ( 'NONE',  ( 0.0000000000000000000, 1.000000000000000000, 0.0000000000000000000 ) ) ;
#219 = EDGE_CURVE ( 'NONE', #215, #34, #185, .T. ) ;
#220 = FACE_OUTER_BOUND ( 'NONE', #40, .T. ) ;
#221 = CARTESIAN_POINT ( 'NONE',  ( 1.920314736363723472E-13, -6.735557395310442615E-15, 55.00000000000000000 ) ) ;
#222 = ORIENTED_EDGE ( 'NONE', *, *, #337, .F. ) ;
#223 = ORIENTED_EDGE ( 'NONE', *, *, #323, .T. ) ;
#224 = VECTOR ( 'NONE', #324, 1000.000000000000000 ) ;
#225 = ADVANCED_FACE ( 'NONE', ( #269 ), #240, .T. ) ;
#226 = APPROVAL_DATE_TIME ( #183, #144 ) ;
#227 = PERSON ( 'UNSPECIFIED', 'UNSPECIFIED', 'UNSPECIFIED', ('UNSPECIFIED'), ('UNSPECIFIED'), ('UNSPECIFIED') ) ;
#228 = CALENDAR_DATE ( 2021, 3, 9 ) ;
#229 = AXIS2_PLACEMENT_3D ( 'NONE', #112, #54, #156 ) ;
#230 = EDGE_LOOP ( 'NONE', ( #199, #197 ) ) ;
#231 = CIRCLE ( 'NONE', #255, 1.924999999999996048 ) ;
#232 = ORIENTED_EDGE ( 'NONE', *, *, #323, .F. ) ;
#233 = EDGE_LOOP ( 'NONE', ( #125, #309, #280, #167 ) ) ;
#234 = EDGE_CURVE ( 'NONE', #182, #333, #161, .T. ) ;
#235 = DIRECTION ( 'NONE',  ( 4.001932351973489870E-31, 1.000000000000000000, 1.126443815569358851E-16 ) ) ;
#236 = ORIENTED_EDGE ( 'NONE', *, *, #270, .T. ) ;
#237 = CC_DESIGN_APPROVAL ( #144, ( #119 ) ) ;
#238 = ADVANCED_FACE ( 'NONE', ( #26 ), #159, .T. ) ;
#239 = ORIENTED_EDGE ( 'NONE', *, *, #95, .T. ) ;
#240 = CONICAL_SURFACE ( 'NONE', #94, 1.924999999999994049, 1.029744258676649871 ) ;
#241 = DIRECTION ( 'NONE',  ( 3.491481338843133355E-15, -1.224646799147353207E-16, 1.000000000000000000 ) ) ;
#242 = ADVANCED_FACE ( 'NONE', ( #30 ), #130, .T. ) ;
#243 = CARTESIAN_POINT ( 'NONE',  ( 5.935518276033326704E-14, 1.443518790812031516E-32, 17.00000000000000000 ) ) ;
#244 = CYLINDRICAL_SURFACE ( 'NONE', #29, 1.924999999999994937 ) ;
#245 = CARTESIAN_POINT ( 'NONE',  ( 5.935518276033326704E-14, -2.081899558550500280E-15, 17.00000000000000000 ) ) ;
#246 = DIRECTION ( 'NONE',  ( 3.491481338843133355E-15, -1.224646799147353207E-16, 1.000000000000000000 ) ) ;
#247 = CC_DESIGN_PERSON_AND_ORGANIZATION_ASSIGNMENT ( #330, #204, ( #119 ) ) ;
#248 = ORIENTED_EDGE ( 'NONE', *, *, #114, .F. ) ;
#249 = AXIS2_PLACEMENT_3D ( 'NONE', #133, #63, #107 ) ;
#250 = CIRCLE ( 'NONE', #301, 1.925000000000000488 ) ;
#251 = APPROVAL ( #147, 'UNSPECIFIED' ) ;
#252 = COORDINATED_UNIVERSAL_TIME_OFFSET ( 1, 0, .AHEAD. ) ;
#253 = CIRCLE ( 'NONE', #69, 1.525000000000000577 ) ;
#254 = ADVANCED_BREP_SHAPE_REPRESENTATION ( '4571', ( #282, #60, #173 ), #47 ) ;
#255 = AXIS2_PLACEMENT_3D ( 'NONE', #245, #71, #218 ) ;
#256 = AXIS2_PLACEMENT_3D ( 'NONE', #243, #246, #327 ) ;
#257 = DIRECTION ( 'NONE',  ( -3.491481338843133355E-15, 1.224646799147353207E-16, -1.000000000000000000 ) ) ;
#258 = COORDINATED_UNIVERSAL_TIME_OFFSET ( 1, 0, .AHEAD. ) ;
#259 = CARTESIAN_POINT ( 'NONE',  ( 0.0000000000000000000, 0.0000000000000000000, 0.0000000000000000000 ) ) ;
#260 = CALENDAR_DATE ( 2021, 3, 9 ) ;
#261 = ADVANCED_FACE ( 'NONE', ( #98 ), #312, .F. ) ;
#262 = DIRECTION ( 'NONE',  ( 3.491481338843133355E-15, -1.224646799147353207E-16, 1.000000000000000000 ) ) ;
#263 = PERSON_AND_ORGANIZATION ( #227, #286 ) ;
#264 = CARTESIAN_POINT ( 'NONE',  ( 5.935518276033326704E-14, -2.081899558550500280E-15, 17.00000000000000000 ) ) ;
#265 = CARTESIAN_POINT ( 'NONE',  ( 4.274189763103281952E-15, 1.924999999999993827, 1.156656691628062505 ) ) ;
#266 = DIRECTION ( 'NONE',  ( 4.275831445896958607E-31, 1.000000000000000000, 1.224646799147352961E-16 ) ) ;
#267 = EDGE_CURVE ( 'NONE', #99, #292, #290, .T. ) ;
#268 = AXIS2_PLACEMENT_3D ( 'NONE', #320, #190, #90 ) ;
#269 = FACE_OUTER_BOUND ( 'NONE', #158, .T. ) ;
#270 = EDGE_CURVE ( 'NONE', #117, #188, #250, .T. ) ;
#271 = VECTOR ( 'NONE', #279, 1000.000000000000114 ) ;
#272 = PLANE ( 'NONE',  #256 ) ;
#273 = FACE_OUTER_BOUND ( 'NONE', #230, .T. ) ;
#274 = EDGE_CURVE ( 'NONE', #110, #292, #39, .T. ) ;
#275 = FACE_OUTER_BOUND ( 'NONE', #132, .T. ) ;
#276 = PERSON_AND_ORGANIZATION_ROLE ( 'classification_officer' ) ;
#277 = ADVANCED_FACE ( 'NONE', ( #78 ), #163, .T. ) ;
#278 = PERSON_AND_ORGANIZATION_ROLE ( 'creator' ) ;
#279 = DIRECTION ( 'NONE',  ( -2.382254525458708792E-15, -0.7071067811865495711, -0.7071067811865455743 ) ) ;
#280 = ORIENTED_EDGE ( 'NONE', *, *, #313, .T. ) ;
#281 = CARTESIAN_POINT ( 'NONE',  ( 2.357445088358640459E-16, -1.924999999999994937, -2.357445088358656730E-16 ) ) ;
#282 = MANIFOLD_SOLID_BREP ( 'Corps-Déplacer/Copier1[1]', #62 ) ;
#283 = APPROVAL_DATE_TIME ( #51, #305 ) ;
#284 = CARTESIAN_POINT ( 'NONE',  ( 1.922182322732423113E-13, -1.525000000000007239, 55.00000000000000000 ) ) ;
#285 = COORDINATED_UNIVERSAL_TIME_OFFSET ( 1, 0, .AHEAD. ) ;
#286 = ORGANIZATION ( 'UNSPECIFIED', 'UNSPECIFIED', '' ) ;
#287 = CARTESIAN_POINT ( 'NONE',  ( 1.906348811008350938E-13, 1.924999999999993827, 54.60000000000000142 ) ) ;
#288 = LINE ( 'NONE', #57, #203 ) ;
#289 = ADVANCED_FACE ( 'NONE', ( #120 ), #22, .T. ) ;
#290 = CIRCLE ( 'NONE', #198, 1.924999999999994049 ) ;
#291 = CARTESIAN_POINT ( 'NONE',  ( 0.0000000000000000000, 0.0000000000000000000, 0.0000000000000000000 ) ) ;
#292 = VERTEX_POINT ( 'NONE', #217 ) ;
#293 = AXIS2_PLACEMENT_3D ( 'NONE', #264, #295, #92 ) ;
#294 = LOCAL_TIME ( 9, 22, 36.00000000000000000, #258 ) ;
#295 = DIRECTION ( 'NONE',  ( -3.491481338843133355E-15, 1.224646799147353207E-16, -1.000000000000000000 ) ) ;
#296 = LINE ( 'NONE', #281, #148 ) ;
#297 = EDGE_LOOP ( 'NONE', ( #248, #113, #239, #140 ) ) ;
#298 = DIRECTION ( 'NONE',  ( -3.491481338843133355E-15, 1.224646799147353207E-16, -1.000000000000000000 ) ) ;
#299 = CC_DESIGN_APPROVAL ( #305, ( #109 ) ) ;
#300 = EDGE_CURVE ( 'NONE', #292, #99, #174, .T. ) ;
#301 = AXIS2_PLACEMENT_3D ( 'NONE', #42, #176, #164 ) ;
#302 = CIRCLE ( 'NONE', #249, 1.924999999999996048 ) ;
#303 = DIRECTION ( 'NONE',  ( -4.001932351973489870E-31, -1.000000000000000000, -1.126443815569358851E-16 ) ) ;
#304 = DIRECTION ( 'NONE',  ( -3.491481338843133355E-15, 1.224646799147353207E-16, -1.000000000000000000 ) ) ;
#305 = APPROVAL ( #102, 'UNSPECIFIED' ) ;
#306 = CIRCLE ( 'NONE', #157, 1.925000000000000488 ) ;
#307 = DATE_AND_TIME ( #150, #211 ) ;
#308 = DIRECTION ( 'NONE',  ( -2.468850131082257455E-15, 0.7071067811865497932, -0.7071067811865453523 ) ) ;
#309 = ORIENTED_EDGE ( 'NONE', *, *, #210, .T. ) ;
#310 = EDGE_LOOP ( 'NONE', ( #145, #96, #50 ) ) ;
#311 = PERSON_AND_ORGANIZATION ( #227, #286 ) ;
#312 = PLANE ( 'NONE',  #103 ) ;
#313 = EDGE_CURVE ( 'NONE', #215, #99, #288, .T. ) ;
#314 = CARTESIAN_POINT ( 'NONE',  ( 2.357445088358644897E-16, -1.924999999999998268, -2.357445088358661167E-16 ) ) ;
#315 = APPROVAL_ROLE ( '' ) ;
#316 = CARTESIAN_POINT ( 'NONE',  ( 1.252307764394200349E-13, -1.924999999999998046, 17.00000000000000000 ) ) ;
#317 = ORIENTED_EDGE ( 'NONE', *, *, #175, .F. ) ;
#318 = CARTESIAN_POINT ( 'NONE',  ( 5.935518276033326704E-14, 1.924999999999993827, 17.00000000000000000 ) ) ;
#319 =( NAMED_UNIT ( * ) SI_UNIT ( $, .STERADIAN. ) SOLID_ANGLE_UNIT ( ) );
#320 = CARTESIAN_POINT ( 'NONE',  ( 1.920314736363723472E-13, 1.143566834279656847E-32, 55.00000000000000000 ) ) ;
#321 = DIRECTION ( 'NONE',  ( -3.491481338843133355E-15, 1.224646799147353207E-16, -1.000000000000000000 ) ) ;
#322 = DIRECTION ( 'NONE',  ( -3.491481338843133355E-15, 1.224646799147353207E-16, -1.000000000000000000 ) ) ;
#323 = EDGE_CURVE ( 'NONE', #333, #188, #186, .T. ) ;
#324 = DIRECTION ( 'NONE',  ( -3.491481338843133355E-15, 1.224646799147353207E-16, -1.000000000000000000 ) ) ;
#325 = EDGE_CURVE ( 'NONE', #170, #212, #37, .T. ) ;
#326 = DIRECTION ( 'NONE',  ( 0.0000000000000000000, 1.000000000000000000, 0.0000000000000000000 ) ) ;
#327 = DIRECTION ( 'NONE',  ( -4.275831445896958607E-31, -1.000000000000000000, -1.224646799147353207E-16 ) ) ;
#328 = DIRECTION ( 'NONE',  ( 1.798245827342159528E-15, -0.8571673007021100021, 0.5150380749100580413 ) ) ;
#329 = DATE_TIME_ROLE ( 'classification_date' ) ;
#330 = PERSON_AND_ORGANIZATION ( #227, #286 ) ;
#331 = CC_DESIGN_SECURITY_CLASSIFICATION ( #109, ( #119 ) ) ;
#332 = DIRECTION ( 'NONE',  ( -3.491481338843133355E-15, 1.224646799147353207E-16, -1.000000000000000000 ) ) ;
#333 = VERTEX_POINT ( 'NONE', #172 ) ;
#334 = APPLICATION_PROTOCOL_DEFINITION ( 'international standard', 'config_control_design', 1994, #335 ) ;
#335 = APPLICATION_CONTEXT ( 'configuration controlled 3d designs of mechanical parts and assemblies' ) ;
#336 = ORIENTED_EDGE ( 'NONE', *, *, #267, .F. ) ;
#337 = EDGE_CURVE ( 'NONE', #182, #117, #141, .T. ) ;
ENDSEC;
END-ISO-10303-21;
