ISO-10303-21;
HEADER;
FILE_DESCRIPTION (( 'STEP AP203' ),
    '1' );
FILE_NAME ('45705.step',
    '2021-11-01T09:16:24',
    ( '' ),
    ( '' ),
    'SwSTEP 2.0',
    'SolidWorks 2019',
    '' );
FILE_SCHEMA (( 'CONFIG_CONTROL_DESIGN' ));
ENDSEC;

DATA;
#1 = VERTEX_POINT ( 'NONE', #181 ) ;
#2 = APPROVAL_DATE_TIME ( #199, #10 ) ;
#3 = ADVANCED_FACE ( 'NONE', ( #90 ), #165, .F. ) ;
#4 = CARTESIAN_POINT ( 'NONE',  ( 2.055845706295220438E-14, -1.499999999999992006, 5.888176125771315661 ) ) ;
#5 = CIRCLE ( 'NONE', #182, 1.499999999999991340 ) ;
#6 = DIRECTION ( 'NONE',  ( 0.0000000000000000000, 0.0000000000000000000, 1.000000000000000000 ) ) ;
#7 = PERSON_AND_ORGANIZATION_ROLE ( 'creator' ) ;
#8 = CALENDAR_DATE ( 2021, 1, 11 ) ;
#9 = ORIENTED_EDGE ( 'NONE', *, *, #83, .T. ) ;
#10 = APPROVAL ( #99, 'UNSPECIFIED' ) ;
#11 = AXIS2_PLACEMENT_3D ( 'NONE', #95, #114, #82 ) ;
#12 = DIRECTION ( 'NONE',  ( 0.0000000000000000000, -1.000000000000000000, 0.0000000000000000000 ) ) ;
#13 = DIRECTION ( 'NONE',  ( 3.491481338843133355E-15, -1.224646799147353207E-16, 1.000000000000000000 ) ) ;
#14 = LOCAL_TIME ( 10, 16, 24.00000000000000000, #33 ) ;
#15 = DIRECTION ( 'NONE',  ( 0.0000000000000000000, 1.000000000000000000, 0.0000000000000000000 ) ) ;
#16 = CARTESIAN_POINT ( 'NONE',  ( 1.316288464743861212E-13, -4.616918432785521081E-15, 37.69999999999999574 ) ) ;
#17 = PRODUCT_RELATED_PRODUCT_CATEGORY ( 'detail', '', ( #54 ) ) ;
#18 = DIRECTION ( 'NONE',  ( 3.491481338843133355E-15, -1.219242935835426903E-16, 1.000000000000000000 ) ) ;
#19 = AXIS2_PLACEMENT_3D ( 'NONE', #136, #156, #173 ) ;
#20 = CARTESIAN_POINT ( 'NONE',  ( -3.249454167164405352E-30, 1.134725823838691242E-31, -9.306806629649862188E-16 ) ) ;
#21 = APPLICATION_CONTEXT ( 'configuration controlled 3d designs of mechanical parts and assemblies' ) ;
#22 = DATE_AND_TIME ( #84, #66 ) ;
#23 = DATE_TIME_ROLE ( 'creation_date' ) ;
#24 =( NAMED_UNIT ( * ) SI_UNIT ( $, .STERADIAN. ) SOLID_ANGLE_UNIT ( ) );
#25 = CC_DESIGN_PERSON_AND_ORGANIZATION_ASSIGNMENT ( #180, #7, ( #164 ) ) ;
#26 = PERSON_AND_ORGANIZATION ( #167, #141 ) ;
#27 = ORIENTED_EDGE ( 'NONE', *, *, #37, .F. ) ;
#28 = LOCAL_TIME ( 10, 16, 24.00000000000000000, #216 ) ;
#29 = DATE_TIME_ROLE ( 'classification_date' ) ;
#30 = EDGE_LOOP ( 'NONE', ( #188 ) ) ;
#31 = CC_DESIGN_PERSON_AND_ORGANIZATION_ASSIGNMENT ( #26, #168, ( #93 ) ) ;
#32 = DATE_AND_TIME ( #8, #200 ) ;
#33 = COORDINATED_UNIVERSAL_TIME_OFFSET ( 1, 0, .AHEAD. ) ;
#34 = EDGE_LOOP ( 'NONE', ( #191 ) ) ;
#35 = CIRCLE ( 'NONE', #40, 1.499999999999993783 ) ;
#36 = DIRECTION ( 'NONE',  ( 3.491481338843133355E-15, -1.219242935835426903E-16, 1.000000000000000000 ) ) ;
#37 = EDGE_CURVE ( 'NONE', #198, #198, #153, .T. ) ;
#38 = DIRECTION ( 'NONE',  ( -3.491481338843133355E-15, 1.224646799147353207E-16, -1.000000000000000000 ) ) ;
#39 = DIRECTION ( 'NONE',  ( -4.256963957985708889E-31, -1.000000000000000000, -1.219242935835426903E-16 ) ) ;
#40 = AXIS2_PLACEMENT_3D ( 'NONE', #16, #38, #111 ) ;
#41 = FACE_OUTER_BOUND ( 'NONE', #34, .T. ) ;
#42 = FACE_OUTER_BOUND ( 'NONE', #149, .T. ) ;
#43 = CIRCLE ( 'NONE', #11, 0.1681483474218603835 ) ;
#44 = APPLICATION_PROTOCOL_DEFINITION ( 'international standard', 'config_control_design', 1994, #127 ) ;
#45 = CLOSED_SHELL ( 'NONE', ( #116, #58, #3 ) ) ;
#46 = DIRECTION ( 'NONE',  ( 3.491481338843133355E-15, -1.219242935835426903E-16, 1.000000000000000000 ) ) ;
#47 = PERSON_AND_ORGANIZATION ( #167, #141 ) ;
#48 = DESIGN_CONTEXT ( 'detailed design', #21, 'design' ) ;
#49 = PERSON_AND_ORGANIZATION ( #167, #141 ) ;
#50 = ORIENTED_EDGE ( 'NONE', *, *, #148, .T. ) ;
#51 = COORDINATED_UNIVERSAL_TIME_OFFSET ( 1, 0, .AHEAD. ) ;
#52 = ADVANCED_FACE ( 'NONE', ( #214, #242 ), #162, .T. ) ;
#53 = AXIS2_PLACEMENT_3D ( 'NONE', #92, #225, #80 ) ;
#54 = PRODUCT ( '45705', '45705', '', ( #119 ) ) ;
#55 = ORIENTED_EDGE ( 'NONE', *, *, #208, .F. ) ;
#56 = FACE_OUTER_BOUND ( 'NONE', #206, .T. ) ;
#57 = AXIS2_PLACEMENT_3D ( 'NONE', #139, #240, #155 ) ;
#58 = ADVANCED_FACE ( 'NONE', ( #76, #154 ), #213, .T. ) ;
#59 = CARTESIAN_POINT ( 'NONE',  ( 1.326762908760390423E-13, -4.653657836759941941E-15, 38.00000000000000000 ) ) ;
#60 = CARTESIAN_POINT ( 'NONE',  ( 1.396592535537253145E-15, 0.0000000000000000000, 0.3999999999999999112 ) ) ;
#61 = DIRECTION ( 'NONE',  ( 4.275831445896958607E-31, 1.000000000000000000, 1.224646799147353207E-16 ) ) ;
#62 = AXIS2_PLACEMENT_3D ( 'NONE', #60, #18, #115 ) ;
#63 = FACE_OUTER_BOUND ( 'NONE', #151, .T. ) ;
#64 = VERTEX_POINT ( 'NONE', #67 ) ;
#65 = DIRECTION ( 'NONE',  ( 0.0000000000000000000, -1.000000000000000000, 0.0000000000000000000 ) ) ;
#66 = LOCAL_TIME ( 10, 16, 24.00000000000000000, #88 ) ;
#67 = CARTESIAN_POINT ( 'NONE',  ( 1.396592535537253934E-15, -0.1000000000000003664, 0.4000000000000001887 ) ) ;
#68 = ADVANCED_FACE ( 'NONE', ( #63, #223 ), #243, .T. ) ;
#69 = CIRCLE ( 'NONE', #117, 0.1000000000000000472 ) ;
#70 = APPROVAL_ROLE ( '' ) ;
#71 = ORIENTED_EDGE ( 'NONE', *, *, #212, .F. ) ;
#72 = EDGE_LOOP ( 'NONE', ( #189 ) ) ;
#73 = PERSON_AND_ORGANIZATION ( #167, #141 ) ;
#74 = PRODUCT_DEFINITION_SHAPE ( 'NONE', 'NONE',  #164 ) ;
#75 = EDGE_CURVE ( 'NONE', #64, #64, #98, .T. ) ;
#76 = FACE_OUTER_BOUND ( 'NONE', #204, .T. ) ;
#77 = AXIS2_PLACEMENT_3D ( 'NONE', #226, #194, #39 ) ;
#78 = CARTESIAN_POINT ( 'NONE',  ( 0.0000000000000000000, 0.0000000000000000000, 0.0000000000000000000 ) ) ;
#79 = APPROVAL ( #218, 'UNSPECIFIED' ) ;
#80 = DIRECTION ( 'NONE',  ( 0.0000000000000000000, -1.000000000000000000, 0.0000000000000000000 ) ) ;
#81 = CARTESIAN_POINT ( 'NONE',  ( 1.326762908760390423E-13, -4.653657836759941941E-15, 38.00000000000000000 ) ) ;
#82 = DIRECTION ( 'NONE',  ( 0.0000000000000000000, -1.000000000000000000, 0.0000000000000000000 ) ) ;
#83 = EDGE_CURVE ( 'NONE', #196, #196, #232, .T. ) ;
#84 = CALENDAR_DATE ( 2021, 1, 11 ) ;
#85 = AXIS2_PLACEMENT_3D ( 'NONE', #81, #178, #192 ) ;
#86 = CARTESIAN_POINT ( 'NONE',  ( 1.326762908760390423E-13, 1.199999999999989297, 38.00000000000000000 ) ) ;
#87 = APPLICATION_PROTOCOL_DEFINITION ( 'international standard', 'config_control_design', 1994, #21 ) ;
#88 = COORDINATED_UNIVERSAL_TIME_OFFSET ( 1, 0, .AHEAD. ) ;
#89 = COORDINATED_UNIVERSAL_TIME_OFFSET ( 1, 0, .AHEAD. ) ;
#90 = FACE_OUTER_BOUND ( 'NONE', #144, .T. ) ;
#91 = PLANE ( 'NONE',  #19 ) ;
#92 = CARTESIAN_POINT ( 'NONE',  ( 1.396592535537253934E-15, -4.876971743341709830E-17, 0.4000000000000001887 ) ) ;
#93 = PRODUCT_DEFINITION_FORMATION_WITH_SPECIFIED_SOURCE ( 'ANY', '', #54, .NOT_KNOWN. ) ;
#94 = AXIS2_PLACEMENT_3D ( 'NONE', #241, #138, #177 ) ;
#95 = CARTESIAN_POINT ( 'NONE',  ( 3.203916267762510117E-15, -1.118823759135993603E-16, 0.9176380902050288446 ) ) ;
#96 = FACE_BOUND ( 'NONE', #30, .T. ) ;
#97 = DIRECTION ( 'NONE',  ( -3.491481338843133355E-15, 1.224646799147353207E-16, -1.000000000000000000 ) ) ;
#98 = CIRCLE ( 'NONE', #53, 0.1000000000000003109 ) ;
#99 = APPROVAL_STATUS ( 'not_yet_approved' ) ;
#100 = CARTESIAN_POINT ( 'NONE',  ( 1.316288464743861212E-13, 1.499999999999989120, 37.69999999999999574 ) ) ;
#101 = CC_DESIGN_PERSON_AND_ORGANIZATION_ASSIGNMENT ( #150, #123, ( #93 ) ) ;
#102 = TOROIDAL_SURFACE ( 'NONE', #62, 2.100000000000000089, 2.000000000000000000 ) ;
#103 = APPROVAL_PERSON_ORGANIZATION ( #203, #109, #70 ) ;
#104 = APPROVAL_ROLE ( '' ) ;
#105 = DATE_AND_TIME ( #128, #130 ) ;
#106 = ORIENTED_EDGE ( 'NONE', *, *, #75, .T. ) ;
#107 = AXIS2_PLACEMENT_3D ( 'NONE', #121, #6, #142 ) ;
#108 = SECURITY_CLASSIFICATION_LEVEL ( 'unclassified' ) ;
#109 = APPROVAL ( #205, 'UNSPECIFIED' ) ;
#110 = AXIS2_PLACEMENT_3D ( 'NONE', #59, #134, #15 ) ;
#111 = DIRECTION ( 'NONE',  ( 0.0000000000000000000, 1.000000000000000000, 0.0000000000000000000 ) ) ;
#112 = CARTESIAN_POINT ( 'NONE',  ( 2.055845706295220438E-14, -7.179117146301487287E-16, 5.888176125771315661 ) ) ;
#113 = FACE_OUTER_BOUND ( 'NONE', #186, .T. ) ;
#114 = DIRECTION ( 'NONE',  ( 3.491481338843133355E-15, -1.219242935835426903E-16, 1.000000000000000000 ) ) ;
#115 = DIRECTION ( 'NONE',  ( -4.329829095067823285E-31, -1.000000000000000000, -1.219242935835426903E-16 ) ) ;
#116 = ADVANCED_FACE ( 'NONE', ( #56 ), #91, .T. ) ;
#117 = AXIS2_PLACEMENT_3D ( 'NONE', #20, #46, #161 ) ;
#118 = AXIS2_PLACEMENT_3D ( 'NONE', #175, #13, #152 ) ;
#119 = MECHANICAL_CONTEXT ( 'NONE', #127, 'mechanical' ) ;
#120 = CC_DESIGN_DATE_AND_TIME_ASSIGNMENT ( #22, #23, ( #164 ) ) ;
#121 = CARTESIAN_POINT ( 'NONE',  ( 0.0000000000000000000, 0.0000000000000000000, 0.0000000000000000000 ) ) ;
#122 = PERSON_AND_ORGANIZATION ( #167, #141 ) ;
#123 = PERSON_AND_ORGANIZATION_ROLE ( 'design_supplier' ) ;
#124 = MANIFOLD_SOLID_BREP ( 'Corps-Déplacer/Copier1[1]', #197 ) ;
#125 = PERSON_AND_ORGANIZATION_ROLE ( 'classification_officer' ) ;
#126 = MANIFOLD_SOLID_BREP ( 'Corps-Déplacer/Copier1[2]', #45 ) ;
#127 = APPLICATION_CONTEXT ( 'configuration controlled 3d designs of mechanical parts and assemblies' ) ;
#128 = CALENDAR_DATE ( 2021, 1, 11 ) ;
#129 = APPROVAL_PERSON_ORGANIZATION ( #49, #79, #133 ) ;
#130 = LOCAL_TIME ( 10, 16, 24.00000000000000000, #51 ) ;
#131 = ORIENTED_EDGE ( 'NONE', *, *, #171, .F. ) ;
#132 = ADVANCED_FACE ( 'NONE', ( #113 ), #209, .F. ) ;
#133 = APPROVAL_ROLE ( '' ) ;
#134 = DIRECTION ( 'NONE',  ( -3.491481338843133355E-15, 1.224646799147353207E-16, -1.000000000000000000 ) ) ;
#135 = SECURITY_CLASSIFICATION ( '', '', #108 ) ;
#136 = CARTESIAN_POINT ( 'NONE',  ( 1.396592535537253539E-15, 1.124819836996385132E-32, 0.4000000000000000777 ) ) ;
#137 = CARTESIAN_POINT ( 'NONE',  ( 1.326762908760390423E-13, 8.998558695971030697E-33, 38.00000000000000000 ) ) ;
#138 = DIRECTION ( 'NONE',  ( 3.491481338843133355E-15, -1.219242935835426903E-16, 1.000000000000000000 ) ) ;
#139 = CARTESIAN_POINT ( 'NONE',  ( 1.396592535537253539E-15, 1.124819836996385132E-32, 0.4000000000000000777 ) ) ;
#140 = ADVANCED_FACE ( 'NONE', ( #42, #210 ), #102, .F. ) ;
#141 = ORGANIZATION ( 'UNSPECIFIED', 'UNSPECIFIED', '' ) ;
#142 = DIRECTION ( 'NONE',  ( 1.000000000000000000, 0.0000000000000000000, 0.0000000000000000000 ) ) ;
#143 = ADVANCED_FACE ( 'NONE', ( #41 ), #195, .F. ) ;
#144 = EDGE_LOOP ( 'NONE', ( #71 ) ) ;
#145 = APPROVAL_DATE_TIME ( #185, #79 ) ;
#146 = ORIENTED_EDGE ( 'NONE', *, *, #37, .T. ) ;
#147 = UNCERTAINTY_MEASURE_WITH_UNIT (LENGTH_MEASURE( 1.000000000000000082E-05 ), #159, 'distance_accuracy_value', 'NONE');
#148 = EDGE_CURVE ( 'NONE', #179, #179, #35, .T. ) ;
#149 = EDGE_LOOP ( 'NONE', ( #146 ) ) ;
#150 = PERSON_AND_ORGANIZATION ( #167, #141 ) ;
#151 = EDGE_LOOP ( 'NONE', ( #50 ) ) ;
#152 = DIRECTION ( 'NONE',  ( -4.275831445896958607E-31, -1.000000000000000000, -1.224646799147353207E-16 ) ) ;
#153 = CIRCLE ( 'NONE', #94, 0.1000000000000003109 ) ;
#154 = FACE_OUTER_BOUND ( 'NONE', #207, .T. ) ;
#155 = DIRECTION ( 'NONE',  ( -4.275831445896958607E-31, -1.000000000000000000, -1.224646799147353207E-16 ) ) ;
#156 = DIRECTION ( 'NONE',  ( 3.491481338843133355E-15, -1.224646799147353207E-16, 1.000000000000000000 ) ) ;
#157 = CC_DESIGN_PERSON_AND_ORGANIZATION_ASSIGNMENT ( #122, #217, ( #54 ) ) ;
#158 = CARTESIAN_POINT ( 'NONE',  ( 3.358884281319373533E-14, -1.172939372960886461E-15, 9.620226933340292774 ) ) ;
#159 =( LENGTH_UNIT ( ) NAMED_UNIT ( * ) SI_UNIT ( .MILLI., .METRE. ) );
#160 = CC_DESIGN_APPROVAL ( #79, ( #93 ) ) ;
#161 = DIRECTION ( 'NONE',  ( -4.256963957985737791E-31, -1.000000000000000000, -1.219242935835432573E-16 ) ) ;
#162 = CONICAL_SURFACE ( 'NONE', #85, 1.199999999999993738, 0.7853981633974453924 ) ;
#163 = ORIENTED_EDGE ( 'NONE', *, *, #212, .T. ) ;
#164 = PRODUCT_DEFINITION ( 'UNKNOWN', '', #93, #48 ) ;
#165 = PLANE ( 'NONE',  #118 ) ;
#166 = AXIS2_PLACEMENT_3D ( 'NONE', #78, #224, #61 ) ;
#167 = PERSON ( 'UNSPECIFIED', 'UNSPECIFIED', 'UNSPECIFIED', ('UNSPECIFIED'), ('UNSPECIFIED'), ('UNSPECIFIED') ) ;
#168 = PERSON_AND_ORGANIZATION_ROLE ( 'creator' ) ;
#169 = EDGE_LOOP ( 'NONE', ( #55 ) ) ;
#170 = FACE_OUTER_BOUND ( 'NONE', #72, .T. ) ;
#171 = EDGE_CURVE ( 'NONE', #1, #1, #43, .T. ) ;
#172 = CC_DESIGN_APPROVAL ( #10, ( #164 ) ) ;
#173 = DIRECTION ( 'NONE',  ( -4.275831445896958607E-31, -1.000000000000000000, -1.224646799147353207E-16 ) ) ;
#174 = CC_DESIGN_APPROVAL ( #109, ( #135 ) ) ;
#175 = CARTESIAN_POINT ( 'NONE',  ( -1.282754905350004587E-30, 4.499298539707956128E-32, -3.673956068672651857E-16 ) ) ;
#176 = CC_DESIGN_PERSON_AND_ORGANIZATION_ASSIGNMENT ( #73, #125, ( #135 ) ) ;
#177 = DIRECTION ( 'NONE',  ( 0.0000000000000000000, -1.000000000000000000, 0.0000000000000000000 ) ) ;
#178 = DIRECTION ( 'NONE',  ( -3.491481338843133355E-15, 1.224646799147353207E-16, -1.000000000000000000 ) ) ;
#179 = VERTEX_POINT ( 'NONE', #100 ) ;
#180 = PERSON_AND_ORGANIZATION ( #167, #141 ) ;
#181 = CARTESIAN_POINT ( 'NONE',  ( 3.203916267762510117E-15, -0.1681483474218604945, 0.9176380902050288446 ) ) ;
#182 = AXIS2_PLACEMENT_3D ( 'NONE', #112, #238, #65 ) ;
#183 = ADVANCED_FACE ( 'NONE', ( #96, #170 ), #229, .T. ) ;
#184 = CALENDAR_DATE ( 2021, 1, 11 ) ;
#185 = DATE_AND_TIME ( #233, #14 ) ;
#186 = EDGE_LOOP ( 'NONE', ( #27 ) ) ;
#187 =( GEOMETRIC_REPRESENTATION_CONTEXT ( 3 ) GLOBAL_UNCERTAINTY_ASSIGNED_CONTEXT ( ( #147 ) ) GLOBAL_UNIT_ASSIGNED_CONTEXT ( ( #159, #227, #24 ) ) REPRESENTATION_CONTEXT ( 'NONE', 'WORKASPACE' ) );
#188 = ORIENTED_EDGE ( 'NONE', *, *, #171, .T. ) ;
#189 = ORIENTED_EDGE ( 'NONE', *, *, #208, .T. ) ;
#190 = SHAPE_DEFINITION_REPRESENTATION ( #74, #230 ) ;
#191 = ORIENTED_EDGE ( 'NONE', *, *, #83, .F. ) ;
#192 = DIRECTION ( 'NONE',  ( 0.0000000000000000000, 1.000000000000000000, 0.0000000000000000000 ) ) ;
#193 = AXIS2_PLACEMENT_3D ( 'NONE', #137, #97, #211 ) ;
#194 = DIRECTION ( 'NONE',  ( 3.491481338843133355E-15, -1.219242935835426903E-16, 1.000000000000000000 ) ) ;
#195 = PLANE ( 'NONE',  #193 ) ;
#196 = VERTEX_POINT ( 'NONE', #86 ) ;
#197 = CLOSED_SHELL ( 'NONE', ( #68, #52, #143, #183, #140, #132 ) ) ;
#198 = VERTEX_POINT ( 'NONE', #215 ) ;
#199 = DATE_AND_TIME ( #184, #28 ) ;
#200 = LOCAL_TIME ( 10, 16, 24.00000000000000000, #89 ) ;
#201 = CC_DESIGN_DATE_AND_TIME_ASSIGNMENT ( #32, #29, ( #135 ) ) ;
#202 = VERTEX_POINT ( 'NONE', #4 ) ;
#203 = PERSON_AND_ORGANIZATION ( #167, #141 ) ;
#204 = EDGE_LOOP ( 'NONE', ( #163 ) ) ;
#205 = APPROVAL_STATUS ( 'not_yet_approved' ) ;
#206 = EDGE_LOOP ( 'NONE', ( #106 ) ) ;
#207 = EDGE_LOOP ( 'NONE', ( #237 ) ) ;
#208 = EDGE_CURVE ( 'NONE', #202, #202, #5, .T. ) ;
#209 = PLANE ( 'NONE',  #57 ) ;
#210 = FACE_OUTER_BOUND ( 'NONE', #234, .T. ) ;
#211 = DIRECTION ( 'NONE',  ( 4.275831445896958607E-31, 1.000000000000000000, 1.224646799147353207E-16 ) ) ;
#212 = EDGE_CURVE ( 'NONE', #228, #228, #69, .T. ) ;
#213 = CYLINDRICAL_SURFACE ( 'NONE', #77, 0.1000000000000001860 ) ;
#214 = FACE_OUTER_BOUND ( 'NONE', #221, .T. ) ;
#215 = CARTESIAN_POINT ( 'NONE',  ( 1.396592535537253934E-15, -0.1000000000000003664, 0.4000000000000001887 ) ) ;
#216 = COORDINATED_UNIVERSAL_TIME_OFFSET ( 1, 0, .AHEAD. ) ;
#217 = PERSON_AND_ORGANIZATION_ROLE ( 'design_owner' ) ;
#218 = APPROVAL_STATUS ( 'not_yet_approved' ) ;
#219 = CC_DESIGN_SECURITY_CLASSIFICATION ( #135, ( #93 ) ) ;
#220 = ORIENTED_EDGE ( 'NONE', *, *, #148, .F. ) ;
#221 = EDGE_LOOP ( 'NONE', ( #220 ) ) ;
#222 = AXIS2_PLACEMENT_3D ( 'NONE', #158, #36, #12 ) ;
#223 = FACE_OUTER_BOUND ( 'NONE', #169, .T. ) ;
#224 = DIRECTION ( 'NONE',  ( -3.491481338843133355E-15, 1.224646799147353207E-16, -1.000000000000000000 ) ) ;
#225 = DIRECTION ( 'NONE',  ( 3.491481338843133355E-15, -1.219242935835426903E-16, 1.000000000000000000 ) ) ;
#226 = CARTESIAN_POINT ( 'NONE',  ( 0.0000000000000000000, 0.0000000000000000000, 0.0000000000000000000 ) ) ;
#227 =( NAMED_UNIT ( * ) PLANE_ANGLE_UNIT ( ) SI_UNIT ( $, .RADIAN. ) );
#228 = VERTEX_POINT ( 'NONE', #231 ) ;
#229 = CONICAL_SURFACE ( 'NONE', #222, 2.499999999999992895, 0.2617993877991430240 ) ;
#230 = ADVANCED_BREP_SHAPE_REPRESENTATION ( '45705', ( #124, #126, #107 ), #187 ) ;
#231 = CARTESIAN_POINT ( 'NONE',  ( -3.292023806744262905E-30, -0.1000000000000000472, -9.428730923233406259E-16 ) ) ;
#232 = CIRCLE ( 'NONE', #110, 1.199999999999993738 ) ;
#233 = CALENDAR_DATE ( 2021, 1, 11 ) ;
#234 = EDGE_LOOP ( 'NONE', ( #131 ) ) ;
#235 = EDGE_LOOP ( 'NONE', ( #9 ) ) ;
#236 = APPROVAL_DATE_TIME ( #105, #109 ) ;
#237 = ORIENTED_EDGE ( 'NONE', *, *, #75, .F. ) ;
#238 = DIRECTION ( 'NONE',  ( -3.491481338843133355E-15, 1.219242935835426903E-16, -1.000000000000000000 ) ) ;
#239 = APPROVAL_PERSON_ORGANIZATION ( #47, #10, #104 ) ;
#240 = DIRECTION ( 'NONE',  ( 3.491481338843133355E-15, -1.224646799147353207E-16, 1.000000000000000000 ) ) ;
#241 = CARTESIAN_POINT ( 'NONE',  ( 1.396592535537253934E-15, -4.876971743341709830E-17, 0.4000000000000001887 ) ) ;
#242 = FACE_BOUND ( 'NONE', #235, .T. ) ;
#243 = CYLINDRICAL_SURFACE ( 'NONE', #166, 1.499999999999991340 ) ;
ENDSEC;
END-ISO-10303-21;
