ISO-10303-21;
HEADER;
FILE_DESCRIPTION (( 'STEP AP203' ),
    '1' );
FILE_NAME ('4570.step',
    '2021-09-03T07:22:36',
    ( '' ),
    ( '' ),
    'SwSTEP 2.0',
    'SolidWorks 2019',
    '' );
FILE_SCHEMA (( 'CONFIG_CONTROL_DESIGN' ));
ENDSEC;

DATA;
#1 = PRODUCT_DEFINITION_FORMATION_WITH_SPECIFIED_SOURCE ( 'ANY', '', #44, .NOT_KNOWN. ) ;
#2 = EDGE_CURVE ( 'NONE', #129, #331, #61, .T. ) ;
#3 = CARTESIAN_POINT ( 'NONE',  ( 5.237222008264700033E-14, -1.836970198721029983E-15, 15.00000000000000000 ) ) ;
#4 = CARTESIAN_POINT ( 'NONE',  ( 8.017183961056776587E-31, 1.874999999999994671, 2.296212748401281070E-16 ) ) ;
#5 = AXIS2_PLACEMENT_3D ( 'NONE', #227, #48, #148 ) ;
#6 = VERTEX_POINT ( 'NONE', #214 ) ;
#7 = ORIENTED_EDGE ( 'NONE', *, *, #238, .F. ) ;
#8 = ADVANCED_FACE ( 'NONE', ( #322 ), #95, .T. ) ;
#9 = CC_DESIGN_APPROVAL ( #180, ( #325 ) ) ;
#10 = MECHANICAL_CONTEXT ( 'NONE', #143, 'mechanical' ) ;
#11 = VECTOR ( 'NONE', #310, 1000.000000000000000 ) ;
#12 = CARTESIAN_POINT ( 'NONE',  ( 3.933550572338391278E-15, -1.874999999999994005, 1.126613660676683670 ) ) ;
#13 = DATE_AND_TIME ( #122, #315 ) ;
#14 = CARTESIAN_POINT ( 'NONE',  ( 3.933550572338392067E-15, -1.379703813423383452E-16, 1.126613660676683892 ) ) ;
#15 = CARTESIAN_POINT ( 'NONE',  ( 1.815570296198429345E-13, -6.368163355566237959E-15, 52.00000000000000000 ) ) ;
#16 = DIRECTION ( 'NONE',  ( 0.0000000000000000000, 1.000000000000000000, 0.0000000000000000000 ) ) ;
#17 = CC_DESIGN_DATE_AND_TIME_ASSIGNMENT ( #59, #287, ( #325 ) ) ;
#18 = PERSON_AND_ORGANIZATION_ROLE ( 'design_owner' ) ;
#19 = FACE_OUTER_BOUND ( 'NONE', #43, .T. ) ;
#20 = COORDINATED_UNIVERSAL_TIME_OFFSET ( 1, 0, .AHEAD. ) ;
#21 = DIRECTION ( 'NONE',  ( -3.491481338843133355E-15, 1.224646799147353454E-16, -1.000000000000000000 ) ) ;
#22 = CARTESIAN_POINT ( 'NONE',  ( 4.163171847178521259E-15, 1.874999999999993561, 1.126613660676684114 ) ) ;
#23 = AXIS2_PLACEMENT_3D ( 'NONE', #111, #218, #87 ) ;
#24 = DIRECTION ( 'NONE',  ( 0.0000000000000000000, 1.000000000000000000, 0.0000000000000000000 ) ) ;
#25 = DIRECTION ( 'NONE',  ( 4.275831445896959482E-31, 1.000000000000000000, 1.224646799147353454E-16 ) ) ;
#26 = CARTESIAN_POINT ( 'NONE',  ( 0.0000000000000000000, 0.0000000000000000000, 0.0000000000000000000 ) ) ;
#27 = DATE_AND_TIME ( #131, #85 ) ;
#28 = DIRECTION ( 'NONE',  ( -3.491481338843133355E-15, 1.224646799147353454E-16, -1.000000000000000000 ) ) ;
#29 =( NAMED_UNIT ( * ) PLANE_ANGLE_UNIT ( ) SI_UNIT ( $, .RADIAN. ) );
#30 = CARTESIAN_POINT ( 'NONE',  ( 8.017183961056790600E-31, 1.874999999999997780, 2.296212748401285014E-16 ) ) ;
#31 = CC_DESIGN_APPROVAL ( #176, ( #239 ) ) ;
#32 = PERSON_AND_ORGANIZATION_ROLE ( 'design_supplier' ) ;
#33 = CARTESIAN_POINT ( 'NONE',  ( 0.0000000000000000000, 0.0000000000000000000, 0.0000000000000000000 ) ) ;
#34 = EDGE_CURVE ( 'NONE', #159, #288, #155, .T. ) ;
#35 =( NAMED_UNIT ( * ) SI_UNIT ( $, .STERADIAN. ) SOLID_ANGLE_UNIT ( ) );
#36 = APPROVAL_ROLE ( '' ) ;
#37 = CC_DESIGN_PERSON_AND_ORGANIZATION_ASSIGNMENT ( #187, #32, ( #1 ) ) ;
#38 = ORIENTED_EDGE ( 'NONE', *, *, #62, .T. ) ;
#39 = DIRECTION ( 'NONE',  ( 0.0000000000000000000, 0.0000000000000000000, 1.000000000000000000 ) ) ;
#40 = ORIENTED_EDGE ( 'NONE', *, *, #299, .T. ) ;
#41 = CARTESIAN_POINT ( 'NONE',  ( 4.163171847178521259E-15, 1.874999999999993561, 1.126613660676684114 ) ) ;
#42 = ORIENTED_EDGE ( 'NONE', *, *, #169, .T. ) ;
#43 = EDGE_LOOP ( 'NONE', ( #38, #110, #196, #132 ) ) ;
#44 = PRODUCT ( '4570', '4570', '', ( #10 ) ) ;
#45 = PERSON_AND_ORGANIZATION ( #76, #272 ) ;
#46 = PLANE ( 'NONE',  #117 ) ;
#47 = PERSON_AND_ORGANIZATION ( #76, #272 ) ;
#48 = DIRECTION ( 'NONE',  ( -3.491481338843133355E-15, 1.224646799147353454E-16, -1.000000000000000000 ) ) ;
#49 = CIRCLE ( 'NONE', #145, 1.874999999999995337 ) ;
#50 = CARTESIAN_POINT ( 'NONE',  ( 2.296212748401277125E-16, -1.874999999999997780, -2.296212748401292903E-16 ) ) ;
#51 = CARTESIAN_POINT ( 'NONE',  ( 5.237222008264700033E-14, -1.836970198721029983E-15, 15.00000000000000000 ) ) ;
#52 = CARTESIAN_POINT ( 'NONE',  ( 3.933550572338392067E-15, -1.379703813423383452E-16, 1.126613660676683892 ) ) ;
#53 = LINE ( 'NONE', #30, #67 ) ;
#54 = DIRECTION ( 'NONE',  ( 4.275831445896959482E-31, 1.000000000000000000, 1.224646799147353454E-16 ) ) ;
#55 = ADVANCED_FACE ( 'NONE', ( #202 ), #198, .T. ) ;
#56 = SECURITY_CLASSIFICATION_LEVEL ( 'unclassified' ) ;
#57 = AXIS2_PLACEMENT_3D ( 'NONE', #33, #240, #25 ) ;
#58 = EDGE_LOOP ( 'NONE', ( #161, #260, #247, #307 ) ) ;
#59 = DATE_AND_TIME ( #317, #153 ) ;
#60 = ORIENTED_EDGE ( 'NONE', *, *, #252, .T. ) ;
#61 = CIRCLE ( 'NONE', #138, 1.874999999999993783 ) ;
#62 = EDGE_CURVE ( 'NONE', #159, #101, #149, .T. ) ;
#63 = AXIS2_PLACEMENT_3D ( 'NONE', #15, #251, #64 ) ;
#64 = DIRECTION ( 'NONE',  ( 0.0000000000000000000, 1.000000000000000000, 0.0000000000000000000 ) ) ;
#65 = DIRECTION ( 'NONE',  ( -2.468850131082257455E-15, 0.7071067811865497932, -0.7071067811865453523 ) ) ;
#66 = CIRCLE ( 'NONE', #23, 1.874999999999995337 ) ;
#67 = VECTOR ( 'NONE', #279, 1000.000000000000000 ) ;
#68 = CC_DESIGN_PERSON_AND_ORGANIZATION_ASSIGNMENT ( #211, #302, ( #325 ) ) ;
#69 = PLANE ( 'NONE',  #235 ) ;
#70 = PERSON_AND_ORGANIZATION ( #76, #272 ) ;
#71 = DIRECTION ( 'NONE',  ( -4.275831445896959482E-31, -1.000000000000000000, -1.224646799147353454E-16 ) ) ;
#72 = CIRCLE ( 'NONE', #265, 1.874999999999995337 ) ;
#73 = ORIENTED_EDGE ( 'NONE', *, *, #300, .F. ) ;
#74 = VERTEX_POINT ( 'NONE', #181 ) ;
#75 = ORIENTED_EDGE ( 'NONE', *, *, #62, .F. ) ;
#76 = PERSON ( 'UNSPECIFIED', 'UNSPECIFIED', 'UNSPECIFIED', ('UNSPECIFIED'), ('UNSPECIFIED'), ('UNSPECIFIED') ) ;
#77 = CC_DESIGN_PERSON_AND_ORGANIZATION_ASSIGNMENT ( #45, #18, ( #44 ) ) ;
#78 = EDGE_LOOP ( 'NONE', ( #314, #166, #306, #168 ) ) ;
#79 = CYLINDRICAL_SURFACE ( 'NONE', #57, 1.874999999999994671 ) ;
#80 = CC_DESIGN_PERSON_AND_ORGANIZATION_ASSIGNMENT ( #47, #154, ( #239 ) ) ;
#81 = CALENDAR_DATE ( 2021, 3, 9 ) ;
#82 = UNCERTAINTY_MEASURE_WITH_UNIT (LENGTH_MEASURE( 1.000000000000000082E-05 ), #330, 'distance_accuracy_value', 'NONE');
#83 = CIRCLE ( 'NONE', #261, 1.875000000000000000 ) ;
#84 = ORIENTED_EDGE ( 'NONE', *, *, #248, .T. ) ;
#85 = LOCAL_TIME ( 9, 22, 36.00000000000000000, #231 ) ;
#86 = DATE_TIME_ROLE ( 'creation_date' ) ;
#87 = DIRECTION ( 'NONE',  ( 0.0000000000000000000, 1.000000000000000000, 0.0000000000000000000 ) ) ;
#88 = PERSON_AND_ORGANIZATION ( #76, #272 ) ;
#89 = DIRECTION ( 'NONE',  ( 0.0000000000000000000, 1.000000000000000000, 0.0000000000000000000 ) ) ;
#90 = EDGE_LOOP ( 'NONE', ( #217, #189, #318 ) ) ;
#91 = PRODUCT_DEFINITION_SHAPE ( 'NONE', 'NONE',  #239 ) ;
#92 = LINE ( 'NONE', #50, #309 ) ;
#93 = DIRECTION ( 'NONE',  ( -3.491481338843133355E-15, 1.224646799147353454E-16, -1.000000000000000000 ) ) ;
#94 = DIRECTION ( 'NONE',  ( 4.275831445896960358E-31, 1.000000000000000000, 1.224646799147353454E-16 ) ) ;
#95 = CONICAL_SURFACE ( 'NONE', #119, 1.874999999999993783, 1.029744258676649871 ) ;
#96 = CIRCLE ( 'NONE', #194, 1.874999999999993783 ) ;
#97 = ADVANCED_FACE ( 'NONE', ( #99 ), #291, .T. ) ;
#98 = CARTESIAN_POINT ( 'NONE',  ( 1.815570296198429345E-13, 1.474999999999993650, 52.00000000000000000 ) ) ;
#99 = FACE_OUTER_BOUND ( 'NONE', #284, .T. ) ;
#100 = CARTESIAN_POINT ( 'NONE',  ( 2.838250660233280172E-14, -1.874999999999997335, 15.00000000000000000 ) ) ;
#101 = VERTEX_POINT ( 'NONE', #204 ) ;
#102 = AXIS2_PLACEMENT_3D ( 'NONE', #324, #93, #203 ) ;
#103 = APPROVAL ( #199, 'UNSPECIFIED' ) ;
#104 = CIRCLE ( 'NONE', #102, 1.875000000000000000 ) ;
#105 = ADVANCED_FACE ( 'NONE', ( #208 ), #158, .T. ) ;
#106 = ORIENTED_EDGE ( 'NONE', *, *, #259, .F. ) ;
#107 = EDGE_CURVE ( 'NONE', #147, #129, #332, .T. ) ;
#108 = COORDINATED_UNIVERSAL_TIME_OFFSET ( 1, 0, .AHEAD. ) ;
#109 = AXIS2_PLACEMENT_3D ( 'NONE', #321, #21, #89 ) ;
#110 = ORIENTED_EDGE ( 'NONE', *, *, #278, .T. ) ;
#111 = CARTESIAN_POINT ( 'NONE',  ( 5.237222008264700033E-14, -1.836970198721029983E-15, 15.00000000000000000 ) ) ;
#112 = APPROVAL_STATUS ( 'not_yet_approved' ) ;
#113 = DIRECTION ( 'NONE',  ( 4.108650548026116582E-31, 1.000000000000000000, 1.156482317317875176E-16 ) ) ;
#114 = EDGE_LOOP ( 'NONE', ( #42, #312 ) ) ;
#115 = CARTESIAN_POINT ( 'NONE',  ( 0.0000000000000000000, 0.0000000000000000000, 0.0000000000000000000 ) ) ;
#116 = AXIS2_PLACEMENT_3D ( 'NONE', #177, #255, #197 ) ;
#117 = AXIS2_PLACEMENT_3D ( 'NONE', #232, #263, #54 ) ;
#118 = CARTESIAN_POINT ( 'NONE',  ( 1.815570296198429345E-13, 1.474999999999993650, 52.00000000000000000 ) ) ;
#119 = AXIS2_PLACEMENT_3D ( 'NONE', #14, #323, #296 ) ;
#120 = CARTESIAN_POINT ( 'NONE',  ( 5.237222008264700033E-14, -1.836970198721029983E-15, 15.00000000000000000 ) ) ;
#121 = DIRECTION ( 'NONE',  ( 0.0000000000000000000, 1.000000000000000000, 0.0000000000000000000 ) ) ;
#122 = CALENDAR_DATE ( 2021, 3, 9 ) ;
#123 = CARTESIAN_POINT ( 'NONE',  ( 3.933550572338391278E-15, -1.874999999999994005, 1.126613660676683670 ) ) ;
#124 = AXIS2_PLACEMENT_3D ( 'NONE', #26, #152, #94 ) ;
#125 = CARTESIAN_POINT ( 'NONE',  ( 5.237222008264700033E-14, 1.406024796245485897E-32, 15.00000000000000000 ) ) ;
#126 = CARTESIAN_POINT ( 'NONE',  ( 3.933550572338392067E-15, -1.379703813423383452E-16, 1.126613660676683892 ) ) ;
#127 = ADVANCED_FACE ( 'NONE', ( #311 ), #69, .T. ) ;
#128 = EDGE_CURVE ( 'NONE', #275, #74, #66, .T. ) ;
#129 = VERTEX_POINT ( 'NONE', #41 ) ;
#130 = APPROVAL_PERSON_ORGANIZATION ( #70, #176, #222 ) ;
#131 = CALENDAR_DATE ( 2021, 3, 9 ) ;
#132 = ORIENTED_EDGE ( 'NONE', *, *, #34, .F. ) ;
#133 = ORIENTED_EDGE ( 'NONE', *, *, #248, .F. ) ;
#134 = FACE_OUTER_BOUND ( 'NONE', #191, .T. ) ;
#135 = PERSON_AND_ORGANIZATION ( #76, #272 ) ;
#136 = CARTESIAN_POINT ( 'NONE',  ( 0.0000000000000000000, 0.0000000000000000000, 0.0000000000000000000 ) ) ;
#137 = DIRECTION ( 'NONE',  ( 4.108650548026116582E-31, 1.000000000000000000, 1.156482317317875176E-16 ) ) ;
#138 = AXIS2_PLACEMENT_3D ( 'NONE', #281, #249, #113 ) ;
#139 = APPROVAL_DATE_TIME ( #164, #180 ) ;
#140 = DIRECTION ( 'NONE',  ( 1.000000000000000000, 0.0000000000000000000, 0.0000000000000000000 ) ) ;
#141 = ORIENTED_EDGE ( 'NONE', *, *, #107, .T. ) ;
#142 = ADVANCED_FACE ( 'NONE', ( #313 ), #316, .T. ) ;
#143 = APPLICATION_CONTEXT ( 'configuration controlled 3d designs of mechanical parts and assemblies' ) ;
#144 = EDGE_LOOP ( 'NONE', ( #75, #7 ) ) ;
#145 = AXIS2_PLACEMENT_3D ( 'NONE', #3, #234, #163 ) ;
#146 = DIRECTION ( 'NONE',  ( 1.903218546456021928E-15, 0.8571673007021098911, 0.5150380749100583744 ) ) ;
#147 = VERTEX_POINT ( 'NONE', #283 ) ;
#148 = DIRECTION ( 'NONE',  ( 0.0000000000000000000, 1.000000000000000000, 0.0000000000000000000 ) ) ;
#149 = CIRCLE ( 'NONE', #109, 1.474999999999999867 ) ;
#150 = PLANE ( 'NONE',  #305 ) ;
#151 = EDGE_CURVE ( 'NONE', #6, #331, #170, .T. ) ;
#152 = DIRECTION ( 'NONE',  ( -3.491481338843133355E-15, 1.224646799147353454E-16, -1.000000000000000000 ) ) ;
#153 = LOCAL_TIME ( 9, 22, 36.00000000000000000, #273 ) ;
#154 = PERSON_AND_ORGANIZATION_ROLE ( 'creator' ) ;
#155 = LINE ( 'NONE', #118, #268 ) ;
#156 = CIRCLE ( 'NONE', #5, 1.474999999999999867 ) ;
#157 = ORIENTED_EDGE ( 'NONE', *, *, #34, .T. ) ;
#158 = CYLINDRICAL_SURFACE ( 'NONE', #124, 1.874999999999997780 ) ;
#159 = VERTEX_POINT ( 'NONE', #98 ) ;
#160 = LOCAL_TIME ( 9, 22, 36.00000000000000000, #108 ) ;
#161 = ORIENTED_EDGE ( 'NONE', *, *, #250, .T. ) ;
#162 = AXIS2_PLACEMENT_3D ( 'NONE', #115, #219, #293 ) ;
#163 = DIRECTION ( 'NONE',  ( 0.0000000000000000000, 1.000000000000000000, 0.0000000000000000000 ) ) ;
#164 = DATE_AND_TIME ( #81, #160 ) ;
#165 = CARTESIAN_POINT ( 'NONE',  ( 0.0000000000000000000, 0.0000000000000000000, 0.0000000000000000000 ) ) ;
#166 = ORIENTED_EDGE ( 'NONE', *, *, #300, .T. ) ;
#167 = DIRECTION ( 'NONE',  ( -4.275831445896959482E-31, -1.000000000000000000, -1.224646799147353454E-16 ) ) ;
#168 = ORIENTED_EDGE ( 'NONE', *, *, #128, .F. ) ;
#169 = EDGE_CURVE ( 'NONE', #74, #275, #327, .T. ) ;
#170 = LINE ( 'NONE', #12, #183 ) ;
#171 = MANIFOLD_SOLID_BREP ( 'Corps-Déplacer/Copier1[1]', #228 ) ;
#172 = EDGE_LOOP ( 'NONE', ( #195, #245, #157, #73 ) ) ;
#173 = VECTOR ( 'NONE', #146, 1000.000000000000114 ) ;
#174 = DIRECTION ( 'NONE',  ( -3.491481338843133355E-15, 1.224646799147353454E-16, -1.000000000000000000 ) ) ;
#175 =( GEOMETRIC_REPRESENTATION_CONTEXT ( 3 ) GLOBAL_UNCERTAINTY_ASSIGNED_CONTEXT ( ( #82 ) ) GLOBAL_UNIT_ASSIGNED_CONTEXT ( ( #330, #29, #35 ) ) REPRESENTATION_CONTEXT ( 'NONE', 'WORKASPACE' ) );
#176 = APPROVAL ( #179, 'UNSPECIFIED' ) ;
#177 = CARTESIAN_POINT ( 'NONE',  ( 1.815570296198429345E-13, -6.368163355566237959E-15, 52.00000000000000000 ) ) ;
#178 = CARTESIAN_POINT ( 'NONE',  ( 5.237222008264700033E-14, 1.406024796245485897E-32, 15.00000000000000000 ) ) ;
#179 = APPROVAL_STATUS ( 'not_yet_approved' ) ;
#180 = APPROVAL ( #112, 'UNSPECIFIED' ) ;
#181 = CARTESIAN_POINT ( 'NONE',  ( 5.237222008264700033E-14, 1.874999999999993561, 15.00000000000000000 ) ) ;
#182 = VERTEX_POINT ( 'NONE', #205 ) ;
#183 = VECTOR ( 'NONE', #289, 1000.000000000000000 ) ;
#184 = CARTESIAN_POINT ( 'NONE',  ( 1.164959498583164092E-13, -1.874999999999997113, 15.00000000000000000 ) ) ;
#185 = ORIENTED_EDGE ( 'NONE', *, *, #107, .F. ) ;
#186 = APPROVAL_DATE_TIME ( #27, #103 ) ;
#187 = PERSON_AND_ORGANIZATION ( #76, #272 ) ;
#188 = APPROVAL_PERSON_ORGANIZATION ( #135, #180, #36 ) ;
#189 = ORIENTED_EDGE ( 'NONE', *, *, #210, .T. ) ;
#190 = AXIS2_PLACEMENT_3D ( 'NONE', #51, #207, #24 ) ;
#191 = EDGE_LOOP ( 'NONE', ( #60, #269, #242, #185 ) ) ;
#192 = EDGE_LOOP ( 'NONE', ( #286, #133 ) ) ;
#193 = EDGE_CURVE ( 'NONE', #182, #275, #92, .T. ) ;
#194 = AXIS2_PLACEMENT_3D ( 'NONE', #52, #333, #137 ) ;
#195 = ORIENTED_EDGE ( 'NONE', *, *, #278, .F. ) ;
#196 = ORIENTED_EDGE ( 'NONE', *, *, #250, .F. ) ;
#197 = DIRECTION ( 'NONE',  ( 0.0000000000000000000, 1.000000000000000000, 0.0000000000000000000 ) ) ;
#198 = CONICAL_SURFACE ( 'NONE', #116, 1.474999999999999867, 0.7853981633974512766 ) ;
#199 = APPROVAL_STATUS ( 'not_yet_approved' ) ;
#200 = LINE ( 'NONE', #22, #173 ) ;
#201 = DESIGN_CONTEXT ( 'detailed design', #328, 'design' ) ;
#202 = FACE_OUTER_BOUND ( 'NONE', #172, .T. ) ;
#203 = DIRECTION ( 'NONE',  ( 0.0000000000000000000, 1.000000000000000000, 0.0000000000000000000 ) ) ;
#204 = CARTESIAN_POINT ( 'NONE',  ( 1.810638616909314784E-13, -1.475000000000006306, 52.00000000000000000 ) ) ;
#205 = CARTESIAN_POINT ( 'NONE',  ( 1.164959498583163082E-13, -1.875000000000006217, 51.60000000000000142 ) ) ;
#206 = PERSON_AND_ORGANIZATION_ROLE ( 'creator' ) ;
#207 = DIRECTION ( 'NONE',  ( -3.491481338843133355E-15, 1.224646799147353454E-16, -1.000000000000000000 ) ) ;
#208 = FACE_OUTER_BOUND ( 'NONE', #58, .T. ) ;
#209 = ADVANCED_FACE ( 'NONE', ( #223 ), #150, .F. ) ;
#210 = EDGE_CURVE ( 'NONE', #6, #129, #200, .T. ) ;
#211 = PERSON_AND_ORGANIZATION ( #76, #272 ) ;
#212 = CONICAL_SURFACE ( 'NONE', #63, 1.474999999999999867, 0.7853981633974512766 ) ;
#213 = CARTESIAN_POINT ( 'NONE',  ( 1.801604370843056811E-13, 1.874999999999993561, 51.60000000000000142 ) ) ;
#214 = CARTESIAN_POINT ( 'NONE',  ( 0.0000000000000000000, 0.0000000000000000000, 0.0000000000000000000 ) ) ;
#215 = DIRECTION ( 'NONE',  ( -3.491481338843133355E-15, 1.224646799147353454E-16, -1.000000000000000000 ) ) ;
#216 = DIRECTION ( 'NONE',  ( -3.491481338843133355E-15, 1.224646799147353454E-16, -1.000000000000000000 ) ) ;
#217 = ORIENTED_EDGE ( 'NONE', *, *, #151, .F. ) ;
#218 = DIRECTION ( 'NONE',  ( -3.491481338843133355E-15, 1.224646799147353454E-16, -1.000000000000000000 ) ) ;
#219 = DIRECTION ( 'NONE',  ( -3.491481338843133355E-15, 1.224646799147353454E-16, -1.000000000000000000 ) ) ;
#220 = CALENDAR_DATE ( 2021, 3, 9 ) ;
#221 = CC_DESIGN_SECURITY_CLASSIFICATION ( #325, ( #1 ) ) ;
#222 = APPROVAL_ROLE ( '' ) ;
#223 = FACE_OUTER_BOUND ( 'NONE', #114, .T. ) ;
#224 = DIRECTION ( 'NONE',  ( -3.491481338843133355E-15, 1.224646799147353454E-16, -1.000000000000000000 ) ) ;
#225 = ADVANCED_FACE ( 'NONE', ( #19 ), #212, .T. ) ;
#226 = APPLICATION_PROTOCOL_DEFINITION ( 'international standard', 'config_control_design', 1994, #328 ) ;
#227 = CARTESIAN_POINT ( 'NONE',  ( 1.815570296198429345E-13, -6.368163355566237959E-15, 52.00000000000000000 ) ) ;
#228 = CLOSED_SHELL ( 'NONE', ( #225, #105, #209, #142, #55, #335 ) ) ;
#229 = FACE_OUTER_BOUND ( 'NONE', #144, .T. ) ;
#230 = PERSON_AND_ORGANIZATION ( #76, #272 ) ;
#231 = COORDINATED_UNIVERSAL_TIME_OFFSET ( 1, 0, .AHEAD. ) ;
#232 = CARTESIAN_POINT ( 'NONE',  ( 1.815570296198429345E-13, 1.106072839713111091E-32, 52.00000000000000000 ) ) ;
#233 = EDGE_LOOP ( 'NONE', ( #106, #84, #141, #246 ) ) ;
#234 = DIRECTION ( 'NONE',  ( -3.491481338843133355E-15, 1.224646799147353454E-16, -1.000000000000000000 ) ) ;
#235 = AXIS2_PLACEMENT_3D ( 'NONE', #178, #282, #167 ) ;
#236 = AXIS2_PLACEMENT_3D ( 'NONE', #165, #39, #140 ) ;
#237 = FACE_OUTER_BOUND ( 'NONE', #233, .T. ) ;
#238 = EDGE_CURVE ( 'NONE', #101, #159, #156, .T. ) ;
#239 = PRODUCT_DEFINITION ( 'UNKNOWN', '', #1, #201 ) ;
#240 = DIRECTION ( 'NONE',  ( -3.491481338843133355E-15, 1.224646799147353454E-16, -1.000000000000000000 ) ) ;
#241 = DIRECTION ( 'NONE',  ( 4.275831445896959482E-31, 1.000000000000000000, 1.224646799147353454E-16 ) ) ;
#242 = ORIENTED_EDGE ( 'NONE', *, *, #2, .F. ) ;
#243 = CC_DESIGN_PERSON_AND_ORGANIZATION_ASSIGNMENT ( #230, #206, ( #1 ) ) ;
#244 = CARTESIAN_POINT ( 'NONE',  ( 1.801604370843056811E-13, -6.319177483600343742E-15, 51.60000000000000142 ) ) ;
#245 = ORIENTED_EDGE ( 'NONE', *, *, #238, .T. ) ;
#246 = ORIENTED_EDGE ( 'NONE', *, *, #299, .F. ) ;
#247 = ORIENTED_EDGE ( 'NONE', *, *, #169, .F. ) ;
#248 = EDGE_CURVE ( 'NONE', #257, #147, #72, .T. ) ;
#249 = DIRECTION ( 'NONE',  ( -3.491481338843133355E-15, 1.224646799147353454E-16, -1.000000000000000000 ) ) ;
#250 = EDGE_CURVE ( 'NONE', #288, #182, #104, .T. ) ;
#251 = DIRECTION ( 'NONE',  ( -3.491481338843133355E-15, 1.224646799147353454E-16, -1.000000000000000000 ) ) ;
#252 = EDGE_CURVE ( 'NONE', #147, #257, #49, .T. ) ;
#253 = VECTOR ( 'NONE', #215, 1000.000000000000000 ) ;
#254 = COORDINATED_UNIVERSAL_TIME_OFFSET ( 1, 0, .AHEAD. ) ;
#255 = DIRECTION ( 'NONE',  ( -3.491481338843133355E-15, 1.224646799147353454E-16, -1.000000000000000000 ) ) ;
#256 = DIRECTION ( 'NONE',  ( -2.382254525458708792E-15, -0.7071067811865495711, -0.7071067811865455743 ) ) ;
#257 = VERTEX_POINT ( 'NONE', #100 ) ;
#258 = APPROVAL_PERSON_ORGANIZATION ( #88, #103, #294 ) ;
#259 = EDGE_CURVE ( 'NONE', #257, #331, #337, .T. ) ;
#260 = ORIENTED_EDGE ( 'NONE', *, *, #193, .T. ) ;
#261 = AXIS2_PLACEMENT_3D ( 'NONE', #244, #216, #16 ) ;
#262 = CARTESIAN_POINT ( 'NONE',  ( 2.296212748401273181E-16, -1.874999999999994671, -2.296212748401288958E-16 ) ) ;
#263 = DIRECTION ( 'NONE',  ( -3.491481338843133355E-15, 1.224646799147353454E-16, -1.000000000000000000 ) ) ;
#264 = SHAPE_DEFINITION_REPRESENTATION ( #91, #301 ) ;
#265 = AXIS2_PLACEMENT_3D ( 'NONE', #120, #224, #121 ) ;
#266 = ORIENTED_EDGE ( 'NONE', *, *, #151, .T. ) ;
#267 = ADVANCED_FACE ( 'NONE', ( #134 ), #79, .T. ) ;
#268 = VECTOR ( 'NONE', #65, 1000.000000000000114 ) ;
#269 = ORIENTED_EDGE ( 'NONE', *, *, #259, .T. ) ;
#270 = MANIFOLD_SOLID_BREP ( 'Corps-Déplacer/Copier1[2]', #274 ) ;
#271 = DIRECTION ( 'NONE',  ( 3.491481338843133355E-15, -1.224646799147353454E-16, 1.000000000000000000 ) ) ;
#272 = ORGANIZATION ( 'UNSPECIFIED', 'UNSPECIFIED', '' ) ;
#273 = COORDINATED_UNIVERSAL_TIME_OFFSET ( 1, 0, .AHEAD. ) ;
#274 = CLOSED_SHELL ( 'NONE', ( #267, #8, #97, #285, #127 ) ) ;
#275 = VERTEX_POINT ( 'NONE', #184 ) ;
#276 = CARTESIAN_POINT ( 'NONE',  ( 1.817376650227171758E-13, -1.475000000000006306, 52.00000000000000000 ) ) ;
#277 = EDGE_CURVE ( 'NONE', #288, #74, #53, .T. ) ;
#278 = EDGE_CURVE ( 'NONE', #101, #182, #329, .T. ) ;
#279 = DIRECTION ( 'NONE',  ( -3.491481338843133355E-15, 1.224646799147353454E-16, -1.000000000000000000 ) ) ;
#280 = APPLICATION_PROTOCOL_DEFINITION ( 'international standard', 'config_control_design', 1994, #143 ) ;
#281 = CARTESIAN_POINT ( 'NONE',  ( 3.933550572338392067E-15, -1.379703813423383452E-16, 1.126613660676683892 ) ) ;
#282 = DIRECTION ( 'NONE',  ( 3.491481338843133355E-15, -1.224646799147353454E-16, 1.000000000000000000 ) ) ;
#283 = CARTESIAN_POINT ( 'NONE',  ( 5.237222008264700033E-14, 1.874999999999993561, 15.00000000000000000 ) ) ;
#284 = EDGE_LOOP ( 'NONE', ( #295, #266, #40 ) ) ;
#285 = ADVANCED_FACE ( 'NONE', ( #237 ), #336, .T. ) ;
#286 = ORIENTED_EDGE ( 'NONE', *, *, #252, .F. ) ;
#287 = DATE_TIME_ROLE ( 'classification_date' ) ;
#288 = VERTEX_POINT ( 'NONE', #213 ) ;
#289 = DIRECTION ( 'NONE',  ( 1.798245827342159528E-15, -0.8571673007021100021, 0.5150380749100580413 ) ) ;
#290 = CC_DESIGN_DATE_AND_TIME_ASSIGNMENT ( #320, #86, ( #239 ) ) ;
#291 = CONICAL_SURFACE ( 'NONE', #297, 1.874999999999993783, 1.029744258676649871 ) ;
#292 = APPROVAL_DATE_TIME ( #13, #176 ) ;
#293 = DIRECTION ( 'NONE',  ( 4.275831445896960358E-31, 1.000000000000000000, 1.224646799147353454E-16 ) ) ;
#294 = APPROVAL_ROLE ( '' ) ;
#295 = ORIENTED_EDGE ( 'NONE', *, *, #210, .F. ) ;
#296 = DIRECTION ( 'NONE',  ( -4.108650548026116582E-31, -1.000000000000000000, -1.156482317317875176E-16 ) ) ;
#297 = AXIS2_PLACEMENT_3D ( 'NONE', #126, #326, #303 ) ;
#298 = AXIS2_PLACEMENT_3D ( 'NONE', #136, #28, #241 ) ;
#299 = EDGE_CURVE ( 'NONE', #331, #129, #96, .T. ) ;
#300 = EDGE_CURVE ( 'NONE', #182, #288, #83, .T. ) ;
#301 = ADVANCED_BREP_SHAPE_REPRESENTATION ( '4570', ( #171, #270, #236 ), #175 ) ;
#302 = PERSON_AND_ORGANIZATION_ROLE ( 'classification_officer' ) ;
#303 = DIRECTION ( 'NONE',  ( -4.108650548026116582E-31, -1.000000000000000000, -1.156482317317875176E-16 ) ) ;
#304 = PRODUCT_RELATED_PRODUCT_CATEGORY ( 'detail', '', ( #44 ) ) ;
#305 = AXIS2_PLACEMENT_3D ( 'NONE', #125, #271, #71 ) ;
#306 = ORIENTED_EDGE ( 'NONE', *, *, #277, .T. ) ;
#307 = ORIENTED_EDGE ( 'NONE', *, *, #277, .F. ) ;
#308 = CC_DESIGN_APPROVAL ( #103, ( #1 ) ) ;
#309 = VECTOR ( 'NONE', #174, 1000.000000000000000 ) ;
#310 = DIRECTION ( 'NONE',  ( -3.491481338843133355E-15, 1.224646799147353454E-16, -1.000000000000000000 ) ) ;
#311 = FACE_OUTER_BOUND ( 'NONE', #192, .T. ) ;
#312 = ORIENTED_EDGE ( 'NONE', *, *, #128, .T. ) ;
#313 = FACE_OUTER_BOUND ( 'NONE', #78, .T. ) ;
#314 = ORIENTED_EDGE ( 'NONE', *, *, #193, .F. ) ;
#315 = LOCAL_TIME ( 9, 22, 36.00000000000000000, #20 ) ;
#316 = CYLINDRICAL_SURFACE ( 'NONE', #162, 1.874999999999997780 ) ;
#317 = CALENDAR_DATE ( 2021, 3, 9 ) ;
#318 = ORIENTED_EDGE ( 'NONE', *, *, #2, .T. ) ;
#319 = LOCAL_TIME ( 9, 22, 36.00000000000000000, #254 ) ;
#320 = DATE_AND_TIME ( #220, #319 ) ;
#321 = CARTESIAN_POINT ( 'NONE',  ( 1.815570296198429345E-13, -6.368163355566237959E-15, 52.00000000000000000 ) ) ;
#322 = FACE_OUTER_BOUND ( 'NONE', #90, .T. ) ;
#323 = DIRECTION ( 'NONE',  ( 3.491481338843133355E-15, -1.224646799147353454E-16, 1.000000000000000000 ) ) ;
#324 = CARTESIAN_POINT ( 'NONE',  ( 1.801604370843056811E-13, -6.319177483600343742E-15, 51.60000000000000142 ) ) ;
#325 = SECURITY_CLASSIFICATION ( '', '', #56 ) ;
#326 = DIRECTION ( 'NONE',  ( 3.491481338843133355E-15, -1.224646799147353454E-16, 1.000000000000000000 ) ) ;
#327 = CIRCLE ( 'NONE', #190, 1.874999999999995337 ) ;
#328 = APPLICATION_CONTEXT ( 'configuration controlled 3d designs of mechanical parts and assemblies' ) ;
#329 = LINE ( 'NONE', #276, #334 ) ;
#330 =( LENGTH_UNIT ( ) NAMED_UNIT ( * ) SI_UNIT ( .MILLI., .METRE. ) );
#331 = VERTEX_POINT ( 'NONE', #123 ) ;
#332 = LINE ( 'NONE', #4, #253 ) ;
#333 = DIRECTION ( 'NONE',  ( -3.491481338843133355E-15, 1.224646799147353454E-16, -1.000000000000000000 ) ) ;
#334 = VECTOR ( 'NONE', #256, 1000.000000000000114 ) ;
#335 = ADVANCED_FACE ( 'NONE', ( #229 ), #46, .F. ) ;
#336 = CYLINDRICAL_SURFACE ( 'NONE', #298, 1.874999999999994671 ) ;
#337 = LINE ( 'NONE', #262, #11 ) ;
ENDSEC;
END-ISO-10303-21;
