ISO-10303-21;
HEADER;
FILE_DESCRIPTION (( 'STEP AP203' ),
    '1' );
FILE_NAME ('457.step',
    '2021-10-07T13:48:10',
    ( '' ),
    ( '' ),
    'SwSTEP 2.0',
    'SolidWorks 2019',
    '' );
FILE_SCHEMA (( 'CONFIG_CONTROL_DESIGN' ));
ENDSEC;

DATA;
#1 = EDGE_LOOP ( 'NONE', ( #103 ) ) ;
#2 = PERSON ( 'UNSPECIFIED', 'UNSPECIFIED', 'UNSPECIFIED', ('UNSPECIFIED'), ('UNSPECIFIED'), ('UNSPECIFIED') ) ;
#3 = ORIENTED_EDGE ( 'NONE', *, *, #76, .F. ) ;
#4 = PRODUCT_DEFINITION ( 'UNKNOWN', '', #114, #46 ) ;
#5 = DIRECTION ( 'NONE',  ( 0.0000000000000000000, 1.000000000000000000, 0.0000000000000000000 ) ) ;
#6 = CYLINDRICAL_SURFACE ( 'NONE', #201, 0.5499999999999988232 ) ;
#7 = DIRECTION ( 'NONE',  ( 3.491481338843133355E-15, -1.224646799147353207E-16, 1.000000000000000000 ) ) ;
#8 = CC_DESIGN_DATE_AND_TIME_ASSIGNMENT ( #209, #20, ( #4 ) ) ;
#9 = CIRCLE ( 'NONE', #129, 0.7499999999999966693 ) ;
#10 = FACE_OUTER_BOUND ( 'NONE', #1, .T. ) ;
#11 = FACE_OUTER_BOUND ( 'NONE', #156, .T. ) ;
#12 = CARTESIAN_POINT ( 'NONE',  ( 0.0000000000000000000, 0.0000000000000000000, 0.0000000000000000000 ) ) ;
#13 = CC_DESIGN_SECURITY_CLASSIFICATION ( #37, ( #114 ) ) ;
#14 = MECHANICAL_CONTEXT ( 'NONE', #55, 'mechanical' ) ;
#15 = PERSON_AND_ORGANIZATION ( #2, #192 ) ;
#16 = UNCERTAINTY_MEASURE_WITH_UNIT (LENGTH_MEASURE( 1.000000000000000082E-05 ), #64, 'distance_accuracy_value', 'NONE');
#17 = PERSON_AND_ORGANIZATION ( #2, #192 ) ;
#18 = CIRCLE ( 'NONE', #147, 0.5499999999999986011 ) ;
#19 = CARTESIAN_POINT ( 'NONE',  ( 1.040461438975253866E-13, -3.649447461459112464E-15, 29.80000000000000426 ) ) ;
#20 = DATE_TIME_ROLE ( 'creation_date' ) ;
#21 = EDGE_CURVE ( 'NONE', #58, #58, #62, .T. ) ;
#22 = DIRECTION ( 'NONE',  ( -3.491481338843133355E-15, 1.224646799147353207E-16, -1.000000000000000000 ) ) ;
#23 = ORIENTED_EDGE ( 'NONE', *, *, #101, .F. ) ;
#24 = DATE_TIME_ROLE ( 'classification_date' ) ;
#25 = MANIFOLD_SOLID_BREP ( 'Corps-Déplacer/Copier1[1]', #75 ) ;
#26 = ADVANCED_FACE ( 'NONE', ( #213 ), #125, .F. ) ;
#27 = CARTESIAN_POINT ( 'NONE',  ( 3.142333204958820651E-14, -2.083180158237566891E-31, 9.000000000000001776 ) ) ;
#28 = DIRECTION ( 'NONE',  ( 0.0000000000000000000, 1.000000000000000000, 0.0000000000000000000 ) ) ;
#29 = DIRECTION ( 'NONE',  ( -3.491481338843133355E-15, 1.224646799147353207E-16, -1.000000000000000000 ) ) ;
#30 = CARTESIAN_POINT ( 'NONE',  ( 1.047444401652940007E-13, 0.5499999999999953815, 30.00000000000000000 ) ) ;
#31 = DIRECTION ( 'NONE',  ( 3.491481338843133355E-15, -1.224646799147353207E-16, 1.000000000000000000 ) ) ;
#32 = DIRECTION ( 'NONE',  ( 0.0000000000000000000, 0.0000000000000000000, 1.000000000000000000 ) ) ;
#33 = APPLICATION_PROTOCOL_DEFINITION ( 'international standard', 'config_control_design', 1994, #55 ) ;
#34 = PRODUCT_RELATED_PRODUCT_CATEGORY ( 'detail', '', ( #36 ) ) ;
#35 = COORDINATED_UNIVERSAL_TIME_OFFSET ( 1, 0, .AHEAD. ) ;
#36 = PRODUCT ( '457', '457', '', ( #14 ) ) ;
#37 = SECURITY_CLASSIFICATION ( '', '', #38 ) ;
#38 = SECURITY_CLASSIFICATION_LEVEL ( 'unclassified' ) ;
#39 = DATE_AND_TIME ( #119, #223 ) ;
#40 = CARTESIAN_POINT ( 'NONE',  ( 3.142333204958820651E-14, -1.102182119232617911E-15, 9.000000000000001776 ) ) ;
#41 = CC_DESIGN_APPROVAL ( #188, ( #4 ) ) ;
#42 = DIRECTION ( 'NONE',  ( 3.491481338843133355E-15, -1.224646799147353207E-16, 1.000000000000000000 ) ) ;
#43 = DIRECTION ( 'NONE',  ( 0.0000000000000000000, 1.000000000000000000, 0.0000000000000000000 ) ) ;
#44 = CYLINDRICAL_SURFACE ( 'NONE', #186, 0.7499999999999978906 ) ;
#45 = AXIS2_PLACEMENT_3D ( 'NONE', #181, #7, #216 ) ;
#46 = DESIGN_CONTEXT ( 'detailed design', #173, 'design' ) ;
#47 = DIRECTION ( 'NONE',  ( 4.275831445896958607E-31, 1.000000000000000000, 1.224646799147353207E-16 ) ) ;
#48 = APPROVAL ( #104, 'UNSPECIFIED' ) ;
#49 = VERTEX_POINT ( 'NONE', #100 ) ;
#50 = COORDINATED_UNIVERSAL_TIME_OFFSET ( 1, 0, .AHEAD. ) ;
#51 = PERSON_AND_ORGANIZATION ( #2, #192 ) ;
#52 = AXIS2_PLACEMENT_3D ( 'NONE', #19, #22, #5 ) ;
#53 = ORIENTED_EDGE ( 'NONE', *, *, #128, .T. ) ;
#54 = ORIENTED_EDGE ( 'NONE', *, *, #21, .T. ) ;
#55 = APPLICATION_CONTEXT ( 'configuration controlled 3d designs of mechanical parts and assemblies' ) ;
#56 = CARTESIAN_POINT ( 'NONE',  ( 1.047444401652940007E-13, -3.673940397442059178E-15, 30.00000000000000000 ) ) ;
#57 = AXIS2_PLACEMENT_3D ( 'NONE', #179, #91, #166 ) ;
#58 = VERTEX_POINT ( 'NONE', #199 ) ;
#59 = EDGE_CURVE ( 'NONE', #77, #77, #163, .T. ) ;
#60 = DIRECTION ( 'NONE',  ( 0.0000000000000000000, 1.000000000000000000, 0.0000000000000000000 ) ) ;
#61 = CARTESIAN_POINT ( 'NONE',  ( 3.263281666409917668E-14, 0.7499999999999954481, 9.346410161513773573 ) ) ;
#62 = CIRCLE ( 'NONE', #52, 0.7499999999999991118 ) ;
#63 = FACE_OUTER_BOUND ( 'NONE', #127, .T. ) ;
#64 =( LENGTH_UNIT ( ) NAMED_UNIT ( * ) SI_UNIT ( .MILLI., .METRE. ) );
#65 = AXIS2_PLACEMENT_3D ( 'NONE', #40, #182, #28 ) ;
#66 = PERSON_AND_ORGANIZATION_ROLE ( 'creator' ) ;
#67 = CC_DESIGN_DATE_AND_TIME_ASSIGNMENT ( #39, #24, ( #37 ) ) ;
#68 = CONICAL_SURFACE ( 'NONE', #212, 0.5499999999999990452, 0.7853981633974602694 ) ;
#69 = EDGE_LOOP ( 'NONE', ( #23 ) ) ;
#70 = EDGE_LOOP ( 'NONE', ( #72 ) ) ;
#71 = CC_DESIGN_APPROVAL ( #48, ( #114 ) ) ;
#72 = ORIENTED_EDGE ( 'NONE', *, *, #101, .T. ) ;
#73 = DIRECTION ( 'NONE',  ( -3.491481338843133355E-15, 1.224646799147353207E-16, -1.000000000000000000 ) ) ;
#74 = CARTESIAN_POINT ( 'NONE',  ( 0.0000000000000000000, 0.0000000000000000000, 0.0000000000000000000 ) ) ;
#75 = CLOSED_SHELL ( 'NONE', ( #26, #174, #168, #143, #118 ) ) ;
#76 = EDGE_CURVE ( 'NONE', #78, #78, #152, .T. ) ;
#77 = VERTEX_POINT ( 'NONE', #183 ) ;
#78 = VERTEX_POINT ( 'NONE', #30 ) ;
#79 = DIRECTION ( 'NONE',  ( 3.501690807976801338E-31, 1.000000000000000000, 9.856383386231883479E-17 ) ) ;
#80 = AXIS2_PLACEMENT_3D ( 'NONE', #150, #31, #202 ) ;
#81 = APPROVAL_STATUS ( 'not_yet_approved' ) ;
#82 = PERSON_AND_ORGANIZATION ( #2, #192 ) ;
#83 = LOCAL_TIME ( 15, 48, 10.00000000000000000, #90 ) ;
#84 = EDGE_CURVE ( 'NONE', #218, #218, #9, .T. ) ;
#85 = ADVANCED_FACE ( 'NONE', ( #133 ), #132, .T. ) ;
#86 = ORIENTED_EDGE ( 'NONE', *, *, #84, .T. ) ;
#87 = APPROVAL_DATE_TIME ( #124, #214 ) ;
#88 = CALENDAR_DATE ( 2021, 7, 10 ) ;
#89 = PERSON_AND_ORGANIZATION ( #2, #192 ) ;
#90 = COORDINATED_UNIVERSAL_TIME_OFFSET ( 1, 0, .AHEAD. ) ;
#91 = DIRECTION ( 'NONE',  ( -3.491481338843133355E-15, 1.224646799147353207E-16, -1.000000000000000000 ) ) ;
#92 = CARTESIAN_POINT ( 'NONE',  ( 1.047444401652940007E-13, 4.124339402320045473E-33, 30.00000000000000000 ) ) ;
#93 = ADVANCED_BREP_SHAPE_REPRESENTATION ( '457', ( #25, #98, #176 ), #138 ) ;
#94 = CARTESIAN_POINT ( 'NONE',  ( 1.047444401652940007E-13, -3.673940397442059178E-15, 30.00000000000000000 ) ) ;
#95 = APPROVAL_PERSON_ORGANIZATION ( #154, #188, #153 ) ;
#96 = FACE_BOUND ( 'NONE', #171, .T. ) ;
#97 = DIRECTION ( 'NONE',  ( -3.491481338843133355E-15, 1.224646799147353207E-16, -1.000000000000000000 ) ) ;
#98 = MANIFOLD_SOLID_BREP ( 'Corps-Déplacer/Copier1[2]', #134 ) ;
#99 = CONICAL_SURFACE ( 'NONE', #102, 0.7499999999999966693, 0.5235987755982968173 ) ;
#100 = CARTESIAN_POINT ( 'NONE',  ( 1.153841501219262977E-15, 0.5499999999999986011, 0.3304733404651610251 ) ) ;
#101 = EDGE_CURVE ( 'NONE', #184, #184, #178, .T. ) ;
#102 = AXIS2_PLACEMENT_3D ( 'NONE', #198, #42, #115 ) ;
#103 = ORIENTED_EDGE ( 'NONE', *, *, #84, .F. ) ;
#104 = APPROVAL_STATUS ( 'not_yet_approved' ) ;
#105 = APPROVAL_PERSON_ORGANIZATION ( #208, #48, #195 ) ;
#106 = ORIENTED_EDGE ( 'NONE', *, *, #59, .F. ) ;
#107 = CC_DESIGN_PERSON_AND_ORGANIZATION_ASSIGNMENT ( #177, #172, ( #37 ) ) ;
#108 = DIRECTION ( 'NONE',  ( -3.491481338843133355E-15, 1.224646799147353207E-16, -1.000000000000000000 ) ) ;
#109 = PRODUCT_DEFINITION_SHAPE ( 'NONE', 'NONE',  #4 ) ;
#110 = CC_DESIGN_PERSON_AND_ORGANIZATION_ASSIGNMENT ( #82, #66, ( #4 ) ) ;
#111 = CARTESIAN_POINT ( 'NONE',  ( 3.263281666409917668E-14, -1.144605128781613961E-15, 9.346410161513773573 ) ) ;
#112 = FACE_OUTER_BOUND ( 'NONE', #175, .T. ) ;
#113 = AXIS2_PLACEMENT_3D ( 'NONE', #56, #148, #43 ) ;
#114 = PRODUCT_DEFINITION_FORMATION_WITH_SPECIFIED_SOURCE ( 'ANY', '', #36, .NOT_KNOWN. ) ;
#115 = DIRECTION ( 'NONE',  ( 0.0000000000000000000, -1.000000000000000000, 0.0000000000000000000 ) ) ;
#116 =( NAMED_UNIT ( * ) SI_UNIT ( $, .STERADIAN. ) SOLID_ANGLE_UNIT ( ) );
#117 = DATE_AND_TIME ( #220, #197 ) ;
#118 = ADVANCED_FACE ( 'NONE', ( #149 ), #131, .F. ) ;
#119 = CALENDAR_DATE ( 2021, 7, 10 ) ;
#120 = SHAPE_DEFINITION_REPRESENTATION ( #109, #93 ) ;
#121 = CALENDAR_DATE ( 2021, 7, 10 ) ;
#122 = ADVANCED_FACE ( 'NONE', ( #11, #63 ), #6, .T. ) ;
#123 = ORIENTED_EDGE ( 'NONE', *, *, #21, .F. ) ;
#124 = DATE_AND_TIME ( #88, #83 ) ;
#125 = PLANE ( 'NONE',  #80 ) ;
#126 = DATE_AND_TIME ( #121, #170 ) ;
#127 = EDGE_LOOP ( 'NONE', ( #194 ) ) ;
#128 = EDGE_CURVE ( 'NONE', #49, #49, #18, .T. ) ;
#129 = AXIS2_PLACEMENT_3D ( 'NONE', #111, #108, #60 ) ;
#130 = FACE_BOUND ( 'NONE', #69, .T. ) ;
#131 = PLANE ( 'NONE',  #205 ) ;
#132 = PLANE ( 'NONE',  #139 ) ;
#133 = FACE_OUTER_BOUND ( 'NONE', #140, .T. ) ;
#134 = CLOSED_SHELL ( 'NONE', ( #221, #122, #85 ) ) ;
#135 = COORDINATED_UNIVERSAL_TIME_OFFSET ( 1, 0, .AHEAD. ) ;
#136 = CALENDAR_DATE ( 2021, 7, 10 ) ;
#137 = PERSON_AND_ORGANIZATION_ROLE ( 'design_owner' ) ;
#138 =( GEOMETRIC_REPRESENTATION_CONTEXT ( 3 ) GLOBAL_UNCERTAINTY_ASSIGNED_CONTEXT ( ( #16 ) ) GLOBAL_UNIT_ASSIGNED_CONTEXT ( ( #64, #204, #116 ) ) REPRESENTATION_CONTEXT ( 'NONE', 'WORKASPACE' ) );
#139 = AXIS2_PLACEMENT_3D ( 'NONE', #27, #200, #161 ) ;
#140 = EDGE_LOOP ( 'NONE', ( #106 ) ) ;
#141 = APPROVAL_ROLE ( '' ) ;
#142 = EDGE_LOOP ( 'NONE', ( #3 ) ) ;
#143 = ADVANCED_FACE ( 'NONE', ( #215, #96 ), #68, .T. ) ;
#144 = ORIENTED_EDGE ( 'NONE', *, *, #128, .F. ) ;
#145 = EDGE_LOOP ( 'NONE', ( #54 ) ) ;
#146 = FACE_OUTER_BOUND ( 'NONE', #145, .T. ) ;
#147 = AXIS2_PLACEMENT_3D ( 'NONE', #162, #29, #79 ) ;
#148 = DIRECTION ( 'NONE',  ( -3.491481338843133355E-15, 1.224646799147353207E-16, -1.000000000000000000 ) ) ;
#149 = FACE_OUTER_BOUND ( 'NONE', #142, .T. ) ;
#150 = CARTESIAN_POINT ( 'NONE',  ( 3.142333204958820651E-14, -2.083180158237566891E-31, 9.000000000000001776 ) ) ;
#151 = DIRECTION ( 'NONE',  ( -3.491481338843133355E-15, 1.224646799147353207E-16, -1.000000000000000000 ) ) ;
#152 = CIRCLE ( 'NONE', #113, 0.5499999999999990452 ) ;
#153 = APPROVAL_ROLE ( '' ) ;
#154 = PERSON_AND_ORGANIZATION ( #2, #192 ) ;
#155 = APPROVAL_PERSON_ORGANIZATION ( #17, #214, #141 ) ;
#156 = EDGE_LOOP ( 'NONE', ( #144 ) ) ;
#157 = PERSON_AND_ORGANIZATION_ROLE ( 'creator' ) ;
#158 = CONICAL_SURFACE ( 'NONE', #45, 0.5499999999999986011, 1.029744258676649649 ) ;
#159 = PERSON_AND_ORGANIZATION_ROLE ( 'design_supplier' ) ;
#160 = APPROVAL_STATUS ( 'not_yet_approved' ) ;
#161 = DIRECTION ( 'NONE',  ( -4.275831445896958607E-31, -1.000000000000000000, -1.224646799147353207E-16 ) ) ;
#162 = CARTESIAN_POINT ( 'NONE',  ( 1.153841501219262780E-15, -4.047131186041928581E-17, 0.3304733404651609696 ) ) ;
#163 = CIRCLE ( 'NONE', #65, 0.5499999999999990452 ) ;
#164 = DIRECTION ( 'NONE',  ( 0.0000000000000000000, 1.000000000000000000, 0.0000000000000000000 ) ) ;
#165 = CC_DESIGN_PERSON_AND_ORGANIZATION_ASSIGNMENT ( #15, #137, ( #36 ) ) ;
#166 = DIRECTION ( 'NONE',  ( 0.0000000000000000000, 1.000000000000000000, 0.0000000000000000000 ) ) ;
#167 = DIRECTION ( 'NONE',  ( 4.275831445896958607E-31, 1.000000000000000000, 1.224646799147353207E-16 ) ) ;
#168 = ADVANCED_FACE ( 'NONE', ( #10, #146 ), #44, .T. ) ;
#169 = CARTESIAN_POINT ( 'NONE',  ( 0.0000000000000000000, 0.0000000000000000000, 0.0000000000000000000 ) ) ;
#170 = LOCAL_TIME ( 15, 48, 10.00000000000000000, #50 ) ;
#171 = EDGE_LOOP ( 'NONE', ( #190 ) ) ;
#172 = PERSON_AND_ORGANIZATION_ROLE ( 'classification_officer' ) ;
#173 = APPLICATION_CONTEXT ( 'configuration controlled 3d designs of mechanical parts and assemblies' ) ;
#174 = ADVANCED_FACE ( 'NONE', ( #130, #219 ), #99, .T. ) ;
#175 = EDGE_LOOP ( 'NONE', ( #53 ) ) ;
#176 = AXIS2_PLACEMENT_3D ( 'NONE', #169, #32, #187 ) ;
#177 = PERSON_AND_ORGANIZATION ( #2, #192 ) ;
#178 = CIRCLE ( 'NONE', #57, 0.5499999999999990452 ) ;
#179 = CARTESIAN_POINT ( 'NONE',  ( 3.142333204958820651E-14, -1.102182119232617911E-15, 9.000000000000001776 ) ) ;
#180 = CC_DESIGN_PERSON_AND_ORGANIZATION_ASSIGNMENT ( #51, #157, ( #114 ) ) ;
#181 = CARTESIAN_POINT ( 'NONE',  ( 1.153841501219262780E-15, -4.047131186041928581E-17, 0.3304733404651609696 ) ) ;
#182 = DIRECTION ( 'NONE',  ( -3.491481338843133355E-15, 1.224646799147353207E-16, -1.000000000000000000 ) ) ;
#183 = CARTESIAN_POINT ( 'NONE',  ( 3.142333204958820651E-14, 0.5499999999999979350, 9.000000000000001776 ) ) ;
#184 = VERTEX_POINT ( 'NONE', #185 ) ;
#185 = CARTESIAN_POINT ( 'NONE',  ( 3.142333204958820651E-14, 0.5499999999999979350, 9.000000000000001776 ) ) ;
#186 = AXIS2_PLACEMENT_3D ( 'NONE', #74, #217, #47 ) ;
#187 = DIRECTION ( 'NONE',  ( 1.000000000000000000, 0.0000000000000000000, 0.0000000000000000000 ) ) ;
#188 = APPROVAL ( #81, 'UNSPECIFIED' ) ;
#189 = CC_DESIGN_PERSON_AND_ORGANIZATION_ASSIGNMENT ( #89, #159, ( #114 ) ) ;
#190 = ORIENTED_EDGE ( 'NONE', *, *, #76, .T. ) ;
#191 = APPROVAL_DATE_TIME ( #126, #48 ) ;
#192 = ORGANIZATION ( 'UNSPECIFIED', 'UNSPECIFIED', '' ) ;
#193 = EDGE_LOOP ( 'NONE', ( #123 ) ) ;
#194 = ORIENTED_EDGE ( 'NONE', *, *, #59, .T. ) ;
#195 = APPROVAL_ROLE ( '' ) ;
#196 = DIRECTION ( 'NONE',  ( 4.275831445896958607E-31, 1.000000000000000000, 1.224646799147353207E-16 ) ) ;
#197 = LOCAL_TIME ( 15, 48, 10.00000000000000000, #135 ) ;
#198 = CARTESIAN_POINT ( 'NONE',  ( 3.263281666409917668E-14, -1.144605128781613961E-15, 9.346410161513773573 ) ) ;
#199 = CARTESIAN_POINT ( 'NONE',  ( 1.040461438975253866E-13, 0.7499999999999954481, 29.80000000000000426 ) ) ;
#200 = DIRECTION ( 'NONE',  ( 3.491481338843133355E-15, -1.224646799147353207E-16, 1.000000000000000000 ) ) ;
#201 = AXIS2_PLACEMENT_3D ( 'NONE', #12, #73, #196 ) ;
#202 = DIRECTION ( 'NONE',  ( -4.275831445896958607E-31, -1.000000000000000000, -1.224646799147353207E-16 ) ) ;
#203 = APPLICATION_PROTOCOL_DEFINITION ( 'international standard', 'config_control_design', 1994, #173 ) ;
#204 =( NAMED_UNIT ( * ) PLANE_ANGLE_UNIT ( ) SI_UNIT ( $, .RADIAN. ) );
#205 = AXIS2_PLACEMENT_3D ( 'NONE', #92, #97, #167 ) ;
#206 = COORDINATED_UNIVERSAL_TIME_OFFSET ( 1, 0, .AHEAD. ) ;
#207 = LOCAL_TIME ( 15, 48, 10.00000000000000000, #206 ) ;
#208 = PERSON_AND_ORGANIZATION ( #2, #192 ) ;
#209 = DATE_AND_TIME ( #136, #207 ) ;
#210 = EDGE_LOOP ( 'NONE', ( #86 ) ) ;
#211 = CC_DESIGN_APPROVAL ( #214, ( #37 ) ) ;
#212 = AXIS2_PLACEMENT_3D ( 'NONE', #94, #151, #164 ) ;
#213 = FACE_OUTER_BOUND ( 'NONE', #70, .T. ) ;
#214 = APPROVAL ( #160, 'UNSPECIFIED' ) ;
#215 = FACE_OUTER_BOUND ( 'NONE', #193, .T. ) ;
#216 = DIRECTION ( 'NONE',  ( -3.501690807976801338E-31, -1.000000000000000000, -9.856383386231883479E-17 ) ) ;
#217 = DIRECTION ( 'NONE',  ( -3.491481338843133355E-15, 1.224646799147353207E-16, -1.000000000000000000 ) ) ;
#218 = VERTEX_POINT ( 'NONE', #61 ) ;
#219 = FACE_OUTER_BOUND ( 'NONE', #210, .T. ) ;
#220 = CALENDAR_DATE ( 2021, 7, 10 ) ;
#221 = ADVANCED_FACE ( 'NONE', ( #112 ), #158, .T. ) ;
#222 = APPROVAL_DATE_TIME ( #117, #188 ) ;
#223 = LOCAL_TIME ( 15, 48, 10.00000000000000000, #35 ) ;
ENDSEC;
END-ISO-10303-21;
