ISO-10303-21;
HEADER;
FILE_DESCRIPTION (( 'STEP AP203' ),
    '1' );
FILE_NAME ('45696.step',
    '2021-11-15T14:31:31',
    ( '' ),
    ( '' ),
    'SwSTEP 2.0',
    'SolidWorks 2019',
    '' );
FILE_SCHEMA (( 'CONFIG_CONTROL_DESIGN' ));
ENDSEC;

DATA;
#1 = FACE_OUTER_BOUND ( 'NONE', #217, .T. ) ;
#2 = APPLICATION_CONTEXT ( 'configuration controlled 3d designs of mechanical parts and assemblies' ) ;
#3 = DIRECTION ( 'NONE',  ( 0.0000000000000000000, 1.000000000000000000, 0.0000000000000000000 ) ) ;
#4 = ADVANCED_FACE ( 'NONE', ( #138 ), #194, .T. ) ;
#5 = CARTESIAN_POINT ( 'NONE',  ( 1.326762908760390423E-13, 1.199999999999991962, 38.00000000000000000 ) ) ;
#6 = EDGE_CURVE ( 'NONE', #99, #99, #97, .T. ) ;
#7 =( NAMED_UNIT ( * ) SI_UNIT ( $, .STERADIAN. ) SOLID_ANGLE_UNIT ( ) );
#8 = PERSON_AND_ORGANIZATION ( #9, #92 ) ;
#9 = PERSON ( 'UNSPECIFIED', 'UNSPECIFIED', 'UNSPECIFIED', ('UNSPECIFIED'), ('UNSPECIFIED'), ('UNSPECIFIED') ) ;
#10 = CALENDAR_DATE ( 2021, 15, 11 ) ;
#11 = CC_DESIGN_SECURITY_CLASSIFICATION ( #122, ( #147 ) ) ;
#12 = EDGE_LOOP ( 'NONE', ( #87 ) ) ;
#13 = EDGE_LOOP ( 'NONE', ( #238 ) ) ;
#14 = DIRECTION ( 'NONE',  ( 3.491481338843133355E-15, -1.243677319851284845E-16, 1.000000000000000000 ) ) ;
#15 = DIRECTION ( 'NONE',  ( 3.491481338843133355E-15, -1.224646799147353207E-16, 1.000000000000000000 ) ) ;
#16 = FACE_BOUND ( 'NONE', #140, .T. ) ;
#17 = CARTESIAN_POINT ( 'NONE',  ( 7.044545740489955625E-15, -2.509290732456054297E-16, 2.017638090205028156 ) ) ;
#18 = DESIGN_CONTEXT ( 'detailed design', #2, 'design' ) ;
#19 = FACE_OUTER_BOUND ( 'NONE', #176, .T. ) ;
#20 = AXIS2_PLACEMENT_3D ( 'NONE', #36, #189, #191 ) ;
#21 = CALENDAR_DATE ( 2021, 15, 11 ) ;
#22 = APPROVAL_PERSON_ORGANIZATION ( #23, #150, #188 ) ;
#23 = PERSON_AND_ORGANIZATION ( #9, #92 ) ;
#24 = AXIS2_PLACEMENT_3D ( 'NONE', #34, #113, #183 ) ;
#25 = CONICAL_SURFACE ( 'NONE', #165, 1.199999999999996403, 0.7853981633974461696 ) ;
#26 = EDGE_CURVE ( 'NONE', #172, #172, #184, .T. ) ;
#27 = ORIENTED_EDGE ( 'NONE', *, *, #44, .T. ) ;
#28 = DIRECTION ( 'NONE',  ( -3.491481338843133355E-15, 1.224646799147353207E-16, -1.000000000000000000 ) ) ;
#29 = CC_DESIGN_PERSON_AND_ORGANIZATION_ASSIGNMENT ( #83, #106, ( #147 ) ) ;
#30 = DIRECTION ( 'NONE',  ( 3.491481338843133355E-15, -1.243677319851284845E-16, 1.000000000000000000 ) ) ;
#31 = CC_DESIGN_APPROVAL ( #62, ( #147 ) ) ;
#32 = CARTESIAN_POINT ( 'NONE',  ( 1.316288464743861212E-13, -4.616918432785521081E-15, 37.69999999999999574 ) ) ;
#33 = FACE_OUTER_BOUND ( 'NONE', #66, .T. ) ;
#34 = CARTESIAN_POINT ( 'NONE',  ( 5.237222008264700033E-15, -2.168404344971014538E-16, 1.500000000000000000 ) ) ;
#35 = ADVANCED_FACE ( 'NONE', ( #110, #19 ), #241, .T. ) ;
#36 = CARTESIAN_POINT ( 'NONE',  ( 5.237222008264697666E-15, 0.0000000000000000000, 1.499999999999999334 ) ) ;
#37 = AXIS2_PLACEMENT_3D ( 'NONE', #73, #222, #242 ) ;
#38 = CIRCLE ( 'NONE', #196, 0.3181483474218601004 ) ;
#39 = APPLICATION_PROTOCOL_DEFINITION ( 'international standard', 'config_control_design', 1994, #228 ) ;
#40 = COORDINATED_UNIVERSAL_TIME_OFFSET ( 1, 0, .AHEAD. ) ;
#41 = TOROIDAL_SURFACE ( 'NONE', #20, 2.250000000000000000, 2.000000000000000000 ) ;
#42 = APPROVAL_DATE_TIME ( #215, #237 ) ;
#43 = EDGE_LOOP ( 'NONE', ( #157 ) ) ;
#44 = EDGE_CURVE ( 'NONE', #209, #209, #143, .T. ) ;
#45 = ORIENTED_EDGE ( 'NONE', *, *, #56, .F. ) ;
#46 = ADVANCED_BREP_SHAPE_REPRESENTATION ( '45696', ( #78, #80, #128 ), #68 ) ;
#47 = CARTESIAN_POINT ( 'NONE',  ( 0.0000000000000000000, 0.0000000000000000000, 0.0000000000000000000 ) ) ;
#48 = DIRECTION ( 'NONE',  ( 0.0000000000000000000, -1.000000000000000000, 0.0000000000000000000 ) ) ;
#49 = CARTESIAN_POINT ( 'NONE',  ( -6.413677916074933265E-31, 0.0000000000000000000, -1.836950363939232727E-16 ) ) ;
#50 = LOCAL_TIME ( 15, 31, 31.00000000000000000, #193 ) ;
#51 = CARTESIAN_POINT ( 'NONE',  ( 1.326762908760390423E-13, -4.653657836759941941E-15, 38.00000000000000000 ) ) ;
#52 = DIRECTION ( 'NONE',  ( 3.491481338843133355E-15, -1.243677319851284845E-16, 1.000000000000000000 ) ) ;
#53 = ADVANCED_FACE ( 'NONE', ( #1, #16 ), #25, .T. ) ;
#54 = DIRECTION ( 'NONE',  ( 0.0000000000000000000, 0.0000000000000000000, 1.000000000000000000 ) ) ;
#55 = AXIS2_PLACEMENT_3D ( 'NONE', #180, #111, #94 ) ;
#56 = EDGE_CURVE ( 'NONE', #149, #149, #132, .T. ) ;
#57 = APPROVAL_ROLE ( '' ) ;
#58 = CARTESIAN_POINT ( 'NONE',  ( 1.316288464743861212E-13, 1.499999999999992228, 37.69999999999999574 ) ) ;
#59 = PERSON_AND_ORGANIZATION_ROLE ( 'creator' ) ;
#60 = AXIS2_PLACEMENT_3D ( 'NONE', #47, #167, #72 ) ;
#61 = ORIENTED_EDGE ( 'NONE', *, *, #6, .F. ) ;
#62 = APPROVAL ( #227, 'UNSPECIFIED' ) ;
#63 = DATE_TIME_ROLE ( 'classification_date' ) ;
#64 = EDGE_CURVE ( 'NONE', #212, #212, #175, .T. ) ;
#65 = EDGE_LOOP ( 'NONE', ( #103 ) ) ;
#66 = EDGE_LOOP ( 'NONE', ( #61 ) ) ;
#67 = DIRECTION ( 'NONE',  ( -4.275831445896958607E-31, -1.000000000000000000, -1.224646799147353207E-16 ) ) ;
#68 =( GEOMETRIC_REPRESENTATION_CONTEXT ( 3 ) GLOBAL_UNCERTAINTY_ASSIGNED_CONTEXT ( ( #112 ) ) GLOBAL_UNIT_ASSIGNED_CONTEXT ( ( #74, #225, #7 ) ) REPRESENTATION_CONTEXT ( 'NONE', 'WORKASPACE' ) );
#69 = AXIS2_PLACEMENT_3D ( 'NONE', #49, #30, #220 ) ;
#70 = FACE_OUTER_BOUND ( 'NONE', #178, .T. ) ;
#71 = DIRECTION ( 'NONE',  ( 0.0000000000000000000, 1.000000000000000000, 0.0000000000000000000 ) ) ;
#72 = DIRECTION ( 'NONE',  ( 4.275831445896958607E-31, 1.000000000000000000, 1.224646799147352961E-16 ) ) ;
#73 = CARTESIAN_POINT ( 'NONE',  ( 3.547491442338500965E-14, -1.263628305876830231E-15, 10.16041931220496153 ) ) ;
#74 =( LENGTH_UNIT ( ) NAMED_UNIT ( * ) SI_UNIT ( .MILLI., .METRE. ) );
#75 = ADVANCED_FACE ( 'NONE', ( #127, #33 ), #164, .T. ) ;
#76 = PRODUCT_DEFINITION_SHAPE ( 'NONE', 'NONE',  #239 ) ;
#77 = COORDINATED_UNIVERSAL_TIME_OFFSET ( 1, 0, .AHEAD. ) ;
#78 = MANIFOLD_SOLID_BREP ( 'Corps-Déplacer/Copier1[1]', #124 ) ;
#79 = CARTESIAN_POINT ( 'NONE',  ( 5.237222008264697666E-15, -0.2500000000000001110, 1.499999999999999334 ) ) ;
#80 = MANIFOLD_SOLID_BREP ( 'Corps-Déplacer/Copier1[2]', #137 ) ;
#81 = CARTESIAN_POINT ( 'NONE',  ( -2.171138076901598431E-31, -0.2499999999999997780, -6.218386599256414365E-17 ) ) ;
#82 = ADVANCED_FACE ( 'NONE', ( #204 ), #125, .F. ) ;
#83 = PERSON_AND_ORGANIZATION ( #9, #92 ) ;
#84 = APPROVAL_PERSON_ORGANIZATION ( #154, #237, #234 ) ;
#85 = AXIS2_PLACEMENT_3D ( 'NONE', #51, #219, #3 ) ;
#86 = CALENDAR_DATE ( 2021, 15, 11 ) ;
#87 = ORIENTED_EDGE ( 'NONE', *, *, #64, .F. ) ;
#88 = ORIENTED_EDGE ( 'NONE', *, *, #123, .T. ) ;
#89 = ORIENTED_EDGE ( 'NONE', *, *, #6, .T. ) ;
#90 = ORIENTED_EDGE ( 'NONE', *, *, #102, .T. ) ;
#91 = CARTESIAN_POINT ( 'NONE',  ( 1.326762908760390423E-13, -4.653657836759941941E-15, 38.00000000000000000 ) ) ;
#92 = ORGANIZATION ( 'UNSPECIFIED', 'UNSPECIFIED', '' ) ;
#93 = CIRCLE ( 'NONE', #131, 1.499999999999996669 ) ;
#94 = DIRECTION ( 'NONE',  ( -4.275831445896958607E-31, -1.000000000000000000, -1.224646799147353207E-16 ) ) ;
#95 = FACE_OUTER_BOUND ( 'NONE', #159, .T. ) ;
#96 = FACE_OUTER_BOUND ( 'NONE', #12, .T. ) ;
#97 = CIRCLE ( 'NONE', #231, 0.2499999999999999445 ) ;
#98 = CALENDAR_DATE ( 2021, 15, 11 ) ;
#99 = VERTEX_POINT ( 'NONE', #100 ) ;
#100 = CARTESIAN_POINT ( 'NONE',  ( 5.237222008264697666E-15, -0.2500000000000001110, 1.499999999999999334 ) ) ;
#101 = DATE_AND_TIME ( #21, #158 ) ;
#102 = EDGE_CURVE ( 'NONE', #213, #213, #38, .T. ) ;
#103 = ORIENTED_EDGE ( 'NONE', *, *, #44, .F. ) ;
#104 = ORIENTED_EDGE ( 'NONE', *, *, #102, .F. ) ;
#105 = EDGE_LOOP ( 'NONE', ( #235 ) ) ;
#106 = PERSON_AND_ORGANIZATION_ROLE ( 'creator' ) ;
#107 = EDGE_LOOP ( 'NONE', ( #90 ) ) ;
#108 = DIRECTION ( 'NONE',  ( 4.275831445896958607E-31, 1.000000000000000000, 1.224646799147353207E-16 ) ) ;
#109 = DIRECTION ( 'NONE',  ( 0.0000000000000000000, -1.000000000000000000, 0.0000000000000000000 ) ) ;
#110 = FACE_BOUND ( 'NONE', #107, .T. ) ;
#111 = DIRECTION ( 'NONE',  ( 3.491481338843133355E-15, -1.224646799147353207E-16, 1.000000000000000000 ) ) ;
#112 = UNCERTAINTY_MEASURE_WITH_UNIT (LENGTH_MEASURE( 1.000000000000000082E-05 ), #74, 'distance_accuracy_value', 'NONE');
#113 = DIRECTION ( 'NONE',  ( 3.491481338843133355E-15, -1.224646799147353207E-16, 1.000000000000000000 ) ) ;
#114 = LOCAL_TIME ( 15, 31, 31.00000000000000000, #135 ) ;
#115 = APPROVAL_DATE_TIME ( #101, #150 ) ;
#116 = DIRECTION ( 'NONE',  ( 1.000000000000000000, 0.0000000000000000000, 0.0000000000000000000 ) ) ;
#117 = APPLICATION_PROTOCOL_DEFINITION ( 'international standard', 'config_control_design', 1994, #2 ) ;
#118 = APPROVAL_PERSON_ORGANIZATION ( #120, #62, #57 ) ;
#119 = VERTEX_POINT ( 'NONE', #58 ) ;
#120 = PERSON_AND_ORGANIZATION ( #9, #92 ) ;
#121 = PERSON_AND_ORGANIZATION_ROLE ( 'classification_officer' ) ;
#122 = SECURITY_CLASSIFICATION ( '', '', #216 ) ;
#123 = EDGE_CURVE ( 'NONE', #119, #119, #93, .T. ) ;
#124 = CLOSED_SHELL ( 'NONE', ( #155, #53, #192, #35, #202, #169 ) ) ;
#125 = PLANE ( 'NONE',  #55 ) ;
#126 = CARTESIAN_POINT ( 'NONE',  ( 5.237222008264700033E-15, -2.168404344971014538E-16, 1.500000000000000000 ) ) ;
#127 = FACE_OUTER_BOUND ( 'NONE', #43, .T. ) ;
#128 = AXIS2_PLACEMENT_3D ( 'NONE', #226, #54, #116 ) ;
#129 = DIRECTION ( 'NONE',  ( 0.0000000000000000000, 1.000000000000000000, 0.0000000000000000000 ) ) ;
#130 = CARTESIAN_POINT ( 'NONE',  ( 2.244452867314347238E-14, -1.499999999999995559, 6.428368504635982639 ) ) ;
#131 = AXIS2_PLACEMENT_3D ( 'NONE', #32, #166, #71 ) ;
#132 = CIRCLE ( 'NONE', #211, 0.2499999999999997780 ) ;
#133 = AXIS2_PLACEMENT_3D ( 'NONE', #168, #205, #109 ) ;
#134 = PERSON_AND_ORGANIZATION_ROLE ( 'design_owner' ) ;
#135 = COORDINATED_UNIVERSAL_TIME_OFFSET ( 1, 0, .AHEAD. ) ;
#136 = CALENDAR_DATE ( 2021, 15, 11 ) ;
#137 = CLOSED_SHELL ( 'NONE', ( #4, #75, #82 ) ) ;
#138 = FACE_OUTER_BOUND ( 'NONE', #162, .T. ) ;
#139 = EDGE_LOOP ( 'NONE', ( #45 ) ) ;
#140 = EDGE_LOOP ( 'NONE', ( #141 ) ) ;
#141 = ORIENTED_EDGE ( 'NONE', *, *, #26, .T. ) ;
#142 = DIRECTION ( 'NONE',  ( 3.491481338843133355E-15, -1.243677319851284845E-16, 1.000000000000000000 ) ) ;
#143 = CIRCLE ( 'NONE', #210, 1.499999999999994671 ) ;
#144 = DIRECTION ( 'NONE',  ( -3.491481338843133355E-15, 1.224646799147353207E-16, -1.000000000000000000 ) ) ;
#145 = FACE_OUTER_BOUND ( 'NONE', #65, .T. ) ;
#146 = CARTESIAN_POINT ( 'NONE',  ( -1.085569038450798340E-31, -1.897890186345669210E-32, -3.109193299628204717E-17 ) ) ;
#147 = PRODUCT_DEFINITION_FORMATION_WITH_SPECIFIED_SOURCE ( 'ANY', '', #208, .NOT_KNOWN. ) ;
#148 = DIRECTION ( 'NONE',  ( 0.0000000000000000000, -1.000000000000000000, 0.0000000000000000000 ) ) ;
#149 = VERTEX_POINT ( 'NONE', #81 ) ;
#150 = APPROVAL ( #185, 'UNSPECIFIED' ) ;
#151 = DATE_TIME_ROLE ( 'creation_date' ) ;
#152 = MECHANICAL_CONTEXT ( 'NONE', #228, 'mechanical' ) ;
#153 = CARTESIAN_POINT ( 'NONE',  ( 7.044545740489955625E-15, -0.3181483474218603780, 2.017638090205028156 ) ) ;
#154 = PERSON_AND_ORGANIZATION ( #9, #92 ) ;
#155 = ADVANCED_FACE ( 'NONE', ( #95, #145 ), #221, .T. ) ;
#156 = DATE_AND_TIME ( #86, #50 ) ;
#157 = ORIENTED_EDGE ( 'NONE', *, *, #56, .T. ) ;
#158 = LOCAL_TIME ( 15, 31, 31.00000000000000000, #77 ) ;
#159 = EDGE_LOOP ( 'NONE', ( #88 ) ) ;
#160 = CC_DESIGN_PERSON_AND_ORGANIZATION_ASSIGNMENT ( #230, #59, ( #239 ) ) ;
#161 = PERSON_AND_ORGANIZATION ( #9, #92 ) ;
#162 = EDGE_LOOP ( 'NONE', ( #89 ) ) ;
#163 = FACE_OUTER_BOUND ( 'NONE', #105, .T. ) ;
#164 = CYLINDRICAL_SURFACE ( 'NONE', #69, 0.2499999999999998890 ) ;
#165 = AXIS2_PLACEMENT_3D ( 'NONE', #91, #144, #129 ) ;
#166 = DIRECTION ( 'NONE',  ( -3.491481338843133355E-15, 1.224646799147353207E-16, -1.000000000000000000 ) ) ;
#167 = DIRECTION ( 'NONE',  ( -3.491481338843133355E-15, 1.224646799147353207E-16, -1.000000000000000000 ) ) ;
#168 = CARTESIAN_POINT ( 'NONE',  ( 5.237222008264697666E-15, -1.865515979776926775E-16, 1.499999999999999334 ) ) ;
#169 = ADVANCED_FACE ( 'NONE', ( #96 ), #207, .F. ) ;
#170 = DATE_AND_TIME ( #98, #114 ) ;
#171 = COORDINATED_UNIVERSAL_TIME_OFFSET ( 1, 0, .AHEAD. ) ;
#172 = VERTEX_POINT ( 'NONE', #5 ) ;
#173 = CC_DESIGN_APPROVAL ( #150, ( #239 ) ) ;
#174 = APPROVAL_STATUS ( 'not_yet_approved' ) ;
#175 = CIRCLE ( 'NONE', #133, 0.2499999999999999445 ) ;
#176 = EDGE_LOOP ( 'NONE', ( #27 ) ) ;
#177 = PERSON_AND_ORGANIZATION_ROLE ( 'design_supplier' ) ;
#178 = EDGE_LOOP ( 'NONE', ( #104 ) ) ;
#179 = FACE_OUTER_BOUND ( 'NONE', #13, .T. ) ;
#180 = CARTESIAN_POINT ( 'NONE',  ( -8.551680453529350800E-31, 2.999525725151307090E-32, -2.449298628175645296E-16 ) ) ;
#181 = CARTESIAN_POINT ( 'NONE',  ( 2.244452867314347238E-14, -7.994816112862091418E-16, 6.428368504635982639 ) ) ;
#182 = DIRECTION ( 'NONE',  ( 0.0000000000000000000, -1.000000000000000000, 0.0000000000000000000 ) ) ;
#183 = DIRECTION ( 'NONE',  ( -4.275831445896958607E-31, -1.000000000000000000, -1.224646799147353207E-16 ) ) ;
#184 = CIRCLE ( 'NONE', #85, 1.199999999999996403 ) ;
#185 = APPROVAL_STATUS ( 'not_yet_approved' ) ;
#186 = CC_DESIGN_DATE_AND_TIME_ASSIGNMENT ( #156, #63, ( #122 ) ) ;
#187 = CC_DESIGN_PERSON_AND_ORGANIZATION_ASSIGNMENT ( #161, #121, ( #122 ) ) ;
#188 = APPROVAL_ROLE ( '' ) ;
#189 = DIRECTION ( 'NONE',  ( 3.491481338843133355E-15, -1.243677319851284845E-16, 1.000000000000000000 ) ) ;
#190 = PERSON_AND_ORGANIZATION ( #9, #92 ) ;
#191 = DIRECTION ( 'NONE',  ( -4.404759199457932435E-31, -1.000000000000000000, -1.243677319851284845E-16 ) ) ;
#192 = ADVANCED_FACE ( 'NONE', ( #163 ), #240, .F. ) ;
#193 = COORDINATED_UNIVERSAL_TIME_OFFSET ( 1, 0, .AHEAD. ) ;
#194 = PLANE ( 'NONE',  #199 ) ;
#195 = CC_DESIGN_APPROVAL ( #237, ( #122 ) ) ;
#196 = AXIS2_PLACEMENT_3D ( 'NONE', #17, #52, #182 ) ;
#197 = ORIENTED_EDGE ( 'NONE', *, *, #123, .F. ) ;
#198 = LOCAL_TIME ( 15, 31, 31.00000000000000000, #40 ) ;
#199 = AXIS2_PLACEMENT_3D ( 'NONE', #126, #15, #67 ) ;
#200 = PRODUCT_RELATED_PRODUCT_CATEGORY ( 'detail', '', ( #208 ) ) ;
#201 = CARTESIAN_POINT ( 'NONE',  ( 1.326762908760390423E-13, 8.998558695971051224E-33, 38.00000000000000000 ) ) ;
#202 = ADVANCED_FACE ( 'NONE', ( #179, #70 ), #41, .F. ) ;
#203 = DIRECTION ( 'NONE',  ( -3.491481338843133355E-15, 1.243677319851284845E-16, -1.000000000000000000 ) ) ;
#204 = FACE_OUTER_BOUND ( 'NONE', #139, .T. ) ;
#205 = DIRECTION ( 'NONE',  ( 3.491481338843133355E-15, -1.243677319851284845E-16, 1.000000000000000000 ) ) ;
#206 = CC_DESIGN_PERSON_AND_ORGANIZATION_ASSIGNMENT ( #190, #134, ( #208 ) ) ;
#207 = PLANE ( 'NONE',  #24 ) ;
#208 = PRODUCT ( '45696', '45696', '', ( #152 ) ) ;
#209 = VERTEX_POINT ( 'NONE', #130 ) ;
#210 = AXIS2_PLACEMENT_3D ( 'NONE', #181, #203, #48 ) ;
#211 = AXIS2_PLACEMENT_3D ( 'NONE', #146, #142, #224 ) ;
#212 = VERTEX_POINT ( 'NONE', #79 ) ;
#213 = VERTEX_POINT ( 'NONE', #153 ) ;
#214 = DATE_AND_TIME ( #136, #223 ) ;
#215 = DATE_AND_TIME ( #10, #198 ) ;
#216 = SECURITY_CLASSIFICATION_LEVEL ( 'unclassified' ) ;
#217 = EDGE_LOOP ( 'NONE', ( #197 ) ) ;
#218 = APPROVAL_DATE_TIME ( #170, #62 ) ;
#219 = DIRECTION ( 'NONE',  ( -3.491481338843133355E-15, 1.224646799147353207E-16, -1.000000000000000000 ) ) ;
#220 = DIRECTION ( 'NONE',  ( -4.342276153803203868E-31, -1.000000000000000000, -1.243677319851284352E-16 ) ) ;
#221 = CYLINDRICAL_SURFACE ( 'NONE', #60, 1.499999999999994671 ) ;
#222 = DIRECTION ( 'NONE',  ( 3.491481338843133355E-15, -1.243677319851284845E-16, 1.000000000000000000 ) ) ;
#223 = LOCAL_TIME ( 15, 31, 31.00000000000000000, #171 ) ;
#224 = DIRECTION ( 'NONE',  ( -4.342276153803203868E-31, -1.000000000000000000, -1.243677319851284845E-16 ) ) ;
#225 =( NAMED_UNIT ( * ) PLANE_ANGLE_UNIT ( ) SI_UNIT ( $, .RADIAN. ) );
#226 = CARTESIAN_POINT ( 'NONE',  ( 0.0000000000000000000, 0.0000000000000000000, 0.0000000000000000000 ) ) ;
#227 = APPROVAL_STATUS ( 'not_yet_approved' ) ;
#228 = APPLICATION_CONTEXT ( 'configuration controlled 3d designs of mechanical parts and assemblies' ) ;
#229 = CC_DESIGN_DATE_AND_TIME_ASSIGNMENT ( #214, #151, ( #239 ) ) ;
#230 = PERSON_AND_ORGANIZATION ( #9, #92 ) ;
#231 = AXIS2_PLACEMENT_3D ( 'NONE', #243, #14, #148 ) ;
#232 = SHAPE_DEFINITION_REPRESENTATION ( #76, #46 ) ;
#233 = CC_DESIGN_PERSON_AND_ORGANIZATION_ASSIGNMENT ( #8, #177, ( #147 ) ) ;
#234 = APPROVAL_ROLE ( '' ) ;
#235 = ORIENTED_EDGE ( 'NONE', *, *, #26, .F. ) ;
#236 = AXIS2_PLACEMENT_3D ( 'NONE', #201, #28, #108 ) ;
#237 = APPROVAL ( #174, 'UNSPECIFIED' ) ;
#238 = ORIENTED_EDGE ( 'NONE', *, *, #64, .T. ) ;
#239 = PRODUCT_DEFINITION ( 'UNKNOWN', '', #147, #18 ) ;
#240 = PLANE ( 'NONE',  #236 ) ;
#241 = CONICAL_SURFACE ( 'NONE', #37, 2.499999999999995559, 0.2617993877991428575 ) ;
#242 = DIRECTION ( 'NONE',  ( 0.0000000000000000000, -1.000000000000000000, 0.0000000000000000000 ) ) ;
#243 = CARTESIAN_POINT ( 'NONE',  ( 5.237222008264697666E-15, -1.865515979776926775E-16, 1.499999999999999334 ) ) ;
ENDSEC;
END-ISO-10303-21;
